Oops, an error
Loading. Please wait.

Jeepney Tab

ver3
ver3

Whole song

More versions @911Tabs.com
2,873 views 3 this week
no commentswrite comment
1 2 3 4 5
please rate
Autoscroll
+/-
esc
set tempo
stop
Contributor
Hey! There's an official Ultimate Guitar app which is ideal
for learning songs when you're away from computer. Get the app
WARNING: You are trying to view
                                    content from Ultimate-Guitar.com
                                    in an unauthorized application,
                                    which is prohibited.

                                    Please use an official Ultimate
                                    Guitar Tabs application for iPhone,
                                    iPad or Android to access legitimate
                                    chords, guitar, bass, and drum tabs
                                    from Ultimate-Guitar.com database.

                                    Type "ultimate guitar tabs" in Apple
                                    App Store's or Android Market's
                                    search to find the application.
"To the editor, sorry for bugging you... here's my final version of the tab, needless
to say the previous ones were wrong at some point... I'd like to correct the mistakes
myself before someone else makes another version of this song. Please discard of the
two earlier versions I sen't."


Artist: Sponge Cola
Title: Jeepney
Album: Sponge Cola EP
Composer: Datu Pendatun
Transcribed: Francis "weird" Borromeo  : a IV-2 TNHSian batch 04'-05'
Date & Time: 25-01-05, 10:30 pm    -simpleblue10@yahoo.com

Verse: D-G               then          F#m- G

     D       G			    F#m        G
e-------|--------|		 e--------|--------|
B-------|--------|		 B--------|--------|
G---7---|--------|		 G--------|--------|
D---7---|---5----|	3x	 D---4----|---5----|
A---5---|---5----| 		 A---4----|---5----|
E---*---|---3----|		 E---2----|---3----|
Bumaba ako sa jeepney...		 Nating dalawa...

(same chords for all verses)

Pre-Chorus: G-A-D-A  G-A-G-A

            G       A	    D	    A
	e-------|-------|-------|--------|
	B---5---|-------|-------|--------|
	G---5---|-------|---7---|--------|     
	D---3---|---7---|---7---|---7----|
	A-------|---7---|---5---|---7----|
	E-------|---5---|---*---|---5----|

            G       A	    G	    A
	e-------|-------|-------|--------|
	B---5---|-------|---5---|--------|
	G---5---|-------|---5---|--------|     
	D---3---|---7---|---3---|---7----|
	A-------|---7---|-------|---7----|
	E-------|---5---|-------|---5----|


Chorus: D-A-B-G 2x

	 D	A     B     G
    e-----|-----|-----|-----|
    B-----|-----|-----|-----|
    G--7--|-----|-----|-----|
    D--7--|--7--|--9--|--5--|    2x
    A--5--|--7--|--9--|--5--|
    E--*--|--5--|--7--|--3--|


Instrumental: D-G 2x

	     D	    G
	e-------|--------| 
	B-------|--------| 
	G---7---|--------| 
	D---7---|---5----| 
	A---5---|---5----|
	E---*---|---3----|

(after the second Pre-Chorus there's an immediate riff just b4 the chorus)


Do this:

G	     A	       D	  A     (Riff)
    Subalit ngayo'y wala na (wala na)

 e----------------------------------------|
B----------------------------------------|
G----------------------------------------|
D--------7-7h9---14-12—9h11/12~----------|
A----------------------------------------|
E----------------------------------------|


G	  A    G	   A    (Riff)
    Ikaw ay lumayo na  (lumayo na)

Guitar 1 Riff: A/B/C#(distorted)V strum

e------------------|
B------------------|
G------------------|
D----7/9/11--------|
A----7/7/11--------|
E----5/7/9---------|

Guitar 2 Riff: (distorted)

e------------------------------|
B------------------------------|
G------------------------------|
D----151515151515151515--------|
A------------------------------|
E------------------------------|


|----------------------------------------|
 Here's an easier way to do it!!
|----------------------------------------|


Chords:

Verse:

D		    G
   Bumaba ako sa jeepney

D		       G
   Kung saan tayo'y dating magkatabi

D			     G
   Magkahalik ang pisngi nating dal'wa

F#m			G   
   Nating dalawa


Verse 2:(do same chords)

Panyo mo sa aking bulsa
Oh ang kahapon ay naroon pa rin
Tawa nati'y humahalay
Sa init nating dalawa


Pre-Chorus: (distorted)


G	     A	       D	  A     
    Subalit ngayo'y wala na (wala na)

G	  A    G	   A    
    Ikaw ay lumayo na  (lumayo na)


Chorus: (distorted)

D		A	    B		    G
    Naaalala ko ang mga gabing nakahiga sa ilalim ng kalawakan

D		A	    B		    G
    Naaalala ko ang mga gabing magkatabi sa ulan


Instrumental:  D-G 2x (w/ sum pluckin')


Verse 3:(do same verse)

Kulay nang iyong ngiti
Tikwas ng iyong buhok
At ang lambot ng iyong labi
Iyong labi


Verse 4:(do same verse)

Kahit anino mo sa malayo
Ay nais masulyapan
Upang mapawi 
Ang lamig


Pre-Chorus: (distorted)

G	     A	       D	  A     (Riff)
    Subalit ngayo'y wala na (wala na)

G	  A    G	   A    (Riff)
    Ikaw ay lumayo na  (lumayo na)


Chorus: (ditorted)

D		A	    B		    G
    Naaalala ko ang mga gabing nakahiga sa ilalim ng kalawakan

D		A	    B		    G
    Naaalala ko ang mga gabing magkatabi sa ulan


Inrtumental: 

Guitar 1: D-G 2x 

Guitar 2: this riff: acoustic 'ata

e---------------------------------------------|
B---------------------------------------------|
G-------7---9---6h-7---------7----9-7-6-7-----|
D--0--7---7---7---------5--7---7--------------|     4x
A---------------------------------------------|
E---------------------------------------------|


e-----------------------------------------|
B-----------------------------------------|
G-------7-----9---7-----------------------|
D--0--7---7-------------------------------|
A-----------------------------------------|
E-----------------------------------------|



Pre-Chorus: (just strum down once... except for the riff)


    Subalit ngayo'y wala na (wala na)

D	  A    G	   A    (Riff: distorted)
    Ikaw ay lumayo na  (lumayo na)

(repeat chorus 2x)


Fade:

e---------------------------------------------|
B---------------------------------------------|
G-------7---9---6h-7---------7----9-7-6-7-----|
D--0--7---7---7---------5--7---7--------------|     4x
A---------------------------------------------|
E---------------------------------------------|


e-----------------------------------------|
B-----------------------------------------|
G-------7-----9---7-----------------------|
D--0--7---7-------------------------------|
A-----------------------------------------|
E-----------------------------------------|

(Naaalala Naaalala) Magkatabi sa ulan... (Naaalala Naaalala) 2x

Naaalala...

|-----------------------------------------------------------|

  Tablature Legend
|-----------------------------------------------------------|
 h   - hammer-on
 p   - pull-off
 b   - bend
 pb  - pre-bend
 r   - bend release (if no number after the r, then release immediately)
 /\  - slide into or out of (from/to "nowhere")
 s   - legato slide
 S   - shift slide
  - natural harmonic
[n]  - artificial harmonic
n(n) - tapped harmonic
 ~   - vibrato
 tr  - trill
 T   - tap
 TP  - trem. picking
 PM  - palm muting
\n/  - tremolo bar dip; n = amount to dip
 \n  - tremolo bar down
 n/  - tremolo bar up
/n\  - tremolo bar inverted dip
 =   - hold bend; also acts as connecting device for hammers/pulls
 <>  - volume swell (louder/softer)
 x   - on rhythm slash represents muted slash
 o   - on rhythm slash represents single note slash


End notes:

first tab ko po ito.. enjoy! paki rate na lang po, wala kasi akong magawa kaya ginawa
ko tong tab... tinanamad na rin ako mag search neto kasi ala namang lumalabas, kaya
ginawan ko na lang... by the way, YOU GUYS ROCK!!! More power, sori kung na spoil ko...
thanks to Sponge Cola for the music, to GOD, kina Cy, Nice, Mhegs, Majo, Jinglers ng
IV-2 Claud, Francia, Katrina, Kite, Maricar, Mary, Noems, Salve, Mae Sarah, Go Jills!!,
Jef, Kat, sa mga gitarista sina Vens.. Cindy, Mike, Gamez, secs.2 &  1-5, Baliws Chai
Grrrrr, Power Rangers esp. Bhords including Chan n' Morris, Poots, Kalogs, sa lahat ng
IV-2 at dating IV-2 na sina Dominic, Jason, Darryl, Joe, Dione esp Sarah, kay mam Perol,
sa aming TNHS batch 04'-05', sa mga di na mention, sa mga adik sa Ragnarok at sa mga
adik sa kantang ito.. 

di ko po nakuha ung plucking sa 1st instrumental paki tab na lang at yung bass tabs na
rin=) at kung pwede paki mail na rin sakin sa yahoo or friendster: simpleblue10@yahoo.com
comments
We did not receive enough feedback on this tab! Please rate:
print report bad tab
1 2 3 4 5
I want to post or [tab]
guest
You may want to rate the tab now too:
select rating
Please do not post tabs as comments. Select "correction" instead!