Oops, an error
Loading. Please wait.

Transit Tab

ver1
ver1

Album

More versions @911Tabs.com
1,450 views 1 this week
9 commentsread comments
1 2 3 4 5
excellent!
x 4
add to favorites launch autoscroll
font size
0
reset
Autoscroll
+/-
esc
set tempo
stop
Contributor
WARNING: You are trying to view
                                    content from Ultimate-Guitar.com
                                    in an unauthorized application,
                                    which is prohibited.

                                    Please use an official Ultimate
                                    Guitar Tabs application for iPhone,
                                    iPad or Android to access legitimate
                                    chords, guitar, bass, and drum tabs
                                    from Ultimate-Guitar.com database.

                                    Type "ultimate guitar tabs" in Apple
                                    App Store's or Android Market's
                                    search to find the application.
Title: Transit Album Tabs
Artist: Sponge Cola
Album: Transit
Tabber: alfonz___
E-mail: alfonz_montelibano@yahoo.com (sa YM/frendster nlng pow kau mag msg)

Tuning: Guitar Eb (Eb Ab Db Gb Bb eb)

CREDITS:
Thank you: LORD 4 d gift, time and strength...
           mom n dad 4 my guitar (^_^)
           Ultimate-guitar
           and of course, ang star ni twinkle... :)

pls leave a comment, i stil wnt 2 improve this tab...
tnx in advance sa lahat ng "commenters" and  "raters"...


Transit

1.) Bitiw
2.) Tuliro
3.) Movie
4.) The Wandering
5.) Gunita
6.) Do You Know the Feeling
7.) Sa Bingit ng Isang Paalam
8.) Myself In You
9.) All We Need
10.) Nocturne
11.) Pasubali
12.) Harapin

[Press CTRL+F then type the title of the song you're looking for
    and it will automatically scroll down to that song.]



+------------------------------------------------+
|                 1. Bitiw                       |
|            Words: Dilay, Yuzon                 |
|      Music: Armovit, Cantada, Dilay, Yuzon     |
+------------------------------------------------+

INTRO:
======

e|----------------------------------------------------|
B|----------------------------------------------------|
G|-66-x-666-x-666-x-66\44/666-x-666-x-666-x-66-44/----| 2x
D|-66-x-666-x-666-x-66\44/666-x-666-x-666-x-66-44/----|
A|-44-x-444-x-444-x-44\22/444-x-444-x-444-x-44-22/----|
E|----------------------------------------------------|

sa second round pasok bass at drums


vERSE:
======

Guitar 1:
e|----------------------------------------------------|
B|----------------------------------------------------|
G|-66-x-666-x-666-x-66\44/666-x-666-x-666-x-66-44/----| repeat 
D|-66-x-666-x-666-x-66\44/666-x-666-x-666-x-66-44/----| several tyms
A|-44-x-444-x-444-x-44\22/444-x-444-x-444-x-44-22/----|
E|----------------------------------------------------|

Guitar 2:
e|----------------------------------------------------|
B|----------------------------------------------------|
G|-66-x-666-x-/999-x-999-x-66-x-666-x-666-x-666-------| repeat
D|----x-----x------x-----x----x-----------x-----------| several tyms
A|-44-x-444-x-/777-x-777-x-44-x-444-x-444-x-444-------|
E|----------------------------------------------------|


Tama, walang laglagan at
Sama-samang hahanapin ang liwanag at
Tayoy magpapaalon sa
Isang daluyong na maghahatid sa atin sa


REFRAIN:
======

Both guitars

e|--------------------------------------------------------------|
B|--------------------------------------------------------------|
G|-----------------------------7-7-7-7-7-7-7-7-8-8-8-8-8-8-8-8--|
D|-4-4-4-4-4-4-4-4--7--6--4--2-7-7-7-7-7-7-7-7-8-8-8-8-8-8-8-8--|
A|-4-4-4-4-4-4-4-4--7--6--4--2-5-5-5-5-5-5-5-5-6-6-6-6-6-6-6-6--|
E|-2-2-2-2-2-2-2-2--5--4--2--0----------------------------------|
   Isang mahabang   Di na hi-hinto...        Ohhh... Wag kang
          panaginip


CHORUS:
======

***

NOTE: sa chorus na E, pde...

e|---|      e|---|   
B|---|      B|---|   
G|---| OR.. G|-9-|   
D|-2-|      D|-9-|   
A|-2-|      A|-7-|   
E|-0-|      E|---|   

***


   E (strum)       G#m             F#m             A
e|-----------------------------------------------------------------|
B|-----------------------------------------------------------------|
G|-----------------------------------------------------------------|
D|-2-2-2-2-2-2-2-2-6-6-6-6-6-6-6-6-4-4-4-4-4-4-4-4-7-7-7-7-7-7-7-7-|
A|-2-2-2-2-2-2-2-2-6-6-6-6-6-6-6-6-4-4-4-4-4-4-4-4-7-7-7-7-7-7-7-7-|
E|-0-0-0-0-0-0-0-0-4-4-4-4-4-4-4-4-2-2-2-2-2-2-2-2-5-5-5-5-5-5-5-5-|
   Bibitiw bigla   bibitiw bigla   Higpitan lang...Maglalayag patungong langit
          wag kang                     


INTERLUDE:
======

Bass:

G|-----------------------------------|
D|-----------------------------------| 2x
A|-----------------------------------| 
E|-9-9-9-7-7-7-7-7-4-4-4-2-2-2-2-2---|

Guitar 2:

  C#m (strum upwards then let ring)
e|-4-|       
B|-5-|     
G|-6-|
D|-6-|      
A|-4-|      
E|---|      

then play Intro, pero 1 strum per chord lng...

VERSE 2:
======
    C#m     G#m   B
eb|-----------------------------------|
Bb|-----------------------------------|
Gb|-66------------44------------------| repeat until
Db|-66------66----44------------------| "Kaya hanggang ngayoy"
Ab|-44------66----22------------------|
Eb|---------44------------------------|

Teka, kaya ba natin to
Kung hindi nay aakayin kat itatayo
Yun yon
Kaya hanggang ngayoy 

   A
e|---------------------------------------------------------|
B|---------------------------------------------------------|
G|---------------------------------------------------------|
D|-7777777777777777----------------------------------------|
A|-7777777777777777----------------------------------------|
E|-5555555555555555----------------------------------------|
  tuloy tuloy tuloy tuloy wag kang

CHORUS:
======

   E (strum)       G#m             F#m             A
e|-----------------------------------------------------------------|
B|-----------------------------------------------------------------|
G|-----------------------------------------------------------------| repeat 
D|-2-2-2-2-2-2-2-2-6-6-6-6-6-6-6-6-4-4-4-4-4-4-4-4-7-7-7-7-7-7-7-7-|   2x
A|-2-2-2-2-2-2-2-2-6-6-6-6-6-6-6-6-4-4-4-4-4-4-4-4-7-7-7-7-7-7-7-7-|
E|-0-0-0-0-0-0-0-0-4-4-4-4-4-4-4-4-2-2-2-2-2-2-2-2-5-5-5-5-5-5-5-5-|
   Bibitiw bigla.. bibitiw bigla   Higpitan lang...Maglalayag patungong langit wag kang
   Bibitiw bigla   Yong mga mata   Higpitan lng....Maglalayag patungog langit
         pikit ang


SOLO:
======

Bass:

G|---------------------------------------|
D|---------------------------------------| 4x
A|-4-4-4---4-------6-6-------------------|
E|-------4---4---2-----------------------|

lead sa 3rd round
e|----------------------------------------------------|
B|-9-9h10p9-7-9-7-5-7---5-4-5--4----------------------|
G|-------------------------------6-5-5h6~-4----4------| 
D|-------------------------------------------6----6---|
A|----------------------------------------------------|
E|----------------------------------------------------|



Guitar 1:
e|----------------------------------------------------|
B|----------------------------------------------------|
G|--666-----6--------8--8-----------------------------| 2x
D|--666--6--6--6---6-8--8-----------------------------|
A|--444--6--4--6---6-6--6-----------------------------|
E|-------4-----4---4----------------------------------|
Guitar 2:
e|----------------------------------------------------|
B|----------------------------------------------------|
G|--666----4-4----4-4--4h6----------------------------| 2x
D|------6---6----6-6----------------------------------|
A|----------------------------------------------------|
E|----------------------------------------------------|


Guitar 1:
e|----------------------------------------------------|
B|----------------------------------------------------|
G|----------------------------------------------------|
D|-4-4-4-4-4-4-4-4-7-7-7-7-7-7-7-7--------------------|
A|-4-4-4-4-4-4-4-4-7-7-7-7-7-7-7-7--------------------|
E|-2-2-2-2-2-2-2-2-5-5-5-5-5-5-5-5--------------------|
Guitar 2:
e|-----------------------------------------------12---|
B|-------------------5-5-7-7-/9--/9-/10---------------|
G|-----------4---4s6----------------------------------|
D|-/4----------6--------------------------------------|
A|----------------------------------------------------|
E|----------------------------------------------------|



BRIDGE:
======
   C#m     G#m B   C#m     G#m B   C#m     G#m B
e|----------------------------------------------------|
B|----------------------------------------------------|
G|-6-6-6-6-----4-4-6-6-6-6-----4-4-6-6-6-6-----4-4----|
D|-6-6-6-6-6-6-4-4-6-6-6-6-6-6-4-4-6-6-6-6-6-6-4-4----|
A|-4-4-4-4-6-6-2-2-4-4-4-4-6-6-2-2-4-4-4-4-6-6-2-2----|
E|---------4-4-------------4-4-------------4-4--------| 
   Ating tinig     Ating himig     Abot langit


fast picking
   C#m G#m  B
e|-12-(12x)-11-(4x)------| (repeat 3x)
B|-----------------------|
G|-----------------------|


      F#m            A             
e|-----------------------------------------------------|
B|----------------------------------P------------------|
G|----------------------------------A------------------|
D|---4-4-4-4-4-4-4-4-7-7-7-7-7-7-7--U------------------|
A|---4-4-4-4-4-4-4-4-7-7-7-7-7-7-7--S------------------|
E|---2-2-2-2-2-2-2-2-5-5-5-5-5-5-5--E------------------|
heto na tayo     heto na tayo!      Wag kang



CHORUS:
======

   E (strum)       G#m             F#m             A
e|-----------------------------------------------------------------|
B|-----------------------------------------------------------------|
G|-----------------------------------------------------------------| repeat 
D|-2-2-2-2-2-2-2-2-6-6-6-6-6-6-6-6-4-4-4-4-4-4-4-4-7-7-7-7-7-7-7-7-|   2x
A|-2-2-2-2-2-2-2-2-6-6-6-6-6-6-6-6-4-4-4-4-4-4-4-4-7-7-7-7-7-7-7-7-|
E|-0-0-0-0-0-0-0-0-4-4-4-4-4-4-4-4-2-2-2-2-2-2-2-2-5-5-5-5-5-5-5-5-|
   Bibitiw bigla.. bibitiw bigla   Higpitan lang...Maglalayag patungong langit wag kang
   Bibitiw bigla   Yong mga mata   Higpitan lng....Maglalayag patungog
         pikit ang



   E               G#m             F#m             A
e|-----------------------------------------------------------------|
B|-----------------------------------------------------------------|
G|-9-9-9-9-9-9-9-9-------------------------------------------------| repeat 
D|-9-9-9-9-9-9-9-9-6-6-6-6-6-6-6-6-4-4-4-4-4-4-4-4-7-7-7-7-7-7-7-7-|   2x
A|-7-7-7-7-7-7-7-7-6-6-6-6-6-6-6-6-4-4-4-4-4-4-4-4-7-7-7-7-7-7-7-7-|
E|-----------------4-4-4-4-4-4-4-4-2-2-2-2-2-2-2-2-5-5-5-5-5-5-5-5-|
 langi---t      wooh ohh ohhh...   woah ohh ohh... woah ohh ohhh...
 Heto na tayo   heto na tayo... heto na tayo (heto na tayo)



e|-----------------------------------|
B|-----------------------------------|
G|-----------------------------------|
D|-44-x-4-x-4-2-4-x-4-2-4/7----------|
A|-44-x-4-x-4-2-4-x-4-2-4/7----------|
E|-22-0-2-x-2-0-2-x-2-0-2/5----------|


  bagsak
e|--------------------------|
B|--------------------------|
G|--9-----------------------|
D|--9-----------------------|
A|--7-----------------------|
E|--------------------------|

END...







+------------------------------------------------+
|                2. Tuliro                       |
|           Words & Music: Dilay                 |
|   Add'l vox: Patrick Tirano, Raymond Fabul,    |
|         Leon Yonzon, Yan Yuzon, Gosh           |
+------------------------------------------------+

INTRO:
=======


Guitar 1:

    G        Bm       C        Cm
eb|-3-3-3-3--2-2-2-2--3-3-3-3--3-3-3-3-|
Bb|-3-3-3-3--3-3-3-3--5-5-5-5--4-4-4-4-|
Gb|-4-4-4-4--4-4-4-4--5-5-5-5--5-5-5-5-|
Db|------------------------------------|
Ab|------------------------------------|
Eb|------------------------------------|

Guitar 2: 

    G        Bm      C        Cm
eb|---------------------8-------8---8--|
Bb|------------------8--------8---8----|
Gb|------------------9--------8--------|
Db|------------------------------------|
Ab|------------------------------------|
Eb|------------------------------------|



VERSE:
=======

Guitar 1:

    G        Bm       C        Cm
eb|------------------------------------|
Bb|-3-3-3-3--3-3-3-3--5-5-5-5--4-4-4-4-|
Gb|-4-4-4-4--4-4-4-4--5-5-5-5--5-5-5-5-| repeat 2x
Db|-5-5-5-5--4-4-4-4--5-5-5-5--5-5-5-5-|    
Ab|-5-5-5-5--2-2-2-2--3-3-3-3--3-3-3-3-|
Eb|------------------------------------|

Guitar 2:

    G         Bm       C       Cm
eb|-7-7---7---7-7---7--8-8-----8-8---8--|
Bb|-8---8-----7---7----8---8---8---8----|
Gb|-7---------7--------9-------8--------| repeat 2x
Db|-------------------------------------|   
Ab|-------------------------------------|
Eb|-------------------------------------|

Labis, akoy nahuhumaling
sabik sa bawat sandaling, ikay makapiling
Giliw, hayaang lumapit
Huwag mo sanang ipagkait
Ang malas ng langit



CHORUS:
======= 

BOth guitars

           G      Bm        C         Am
eb|----------------------------------------|
Bb|--------3-3----3---------5-5-------1-1--|
Gb|--------4-4----4---------5-5-------2-2--|
Db|--------5-5----4---------5-5-------2-2--|
Ab|--------5-5----2---------3-3-------0-0--|
Eb|----------------------------------------|
    Anong na--darama tuwing nakikita kang 




Guitar 1:

           G      Bm        C         Am
eb|----------------------------------------|
Bb|--------3-3----3---------5-5-------1-1--|
Gb|--------4-4----4---------5-5-------2-2--|
Db|--------5-5----4---------5-5-------2-2--|
Ab|--------5-5----2---------3-3-------0-0--|
Eb|----------------------------------------|
  dumarating  tuliro di malaman anong gagawin at

Guitar 2:

  (fast picking)
eb|--10~---15~-14~--12~---------------|
Bb|-----------------------------------|
Gb|-----------------------------------|
 



Guitar 1:

eb|-----------------------------------|
Bb|-----------------------------------|
Gb|---------8-8-8-8-9-9-9-9-8-8-8-8---|
Db|-5-5-5-5-x-x-x-x-x-x-x-x-x-x-x-x---|
Ab|-5-5-5-5-6-6-6-6-7-7-7-7-6-6-6-6---|
Eb|-3-3-3-3---------------------------|
   Walang sinumang makapipigil sa akin

Guitar 2:
  (fast picking)
eb|--10~-11~-12~-11~---------------|
Bb|--------------------------------|
Gb|--------------------------------|
 



Guitar 1:

eb|--------------------------------------|
Bb|--------------------------------------|
Gb|---------8-8-8-8-9-9-9-9-10-10-10-10--|
Db|-5-5-5-5-x-x-x-x-x-x-x-x-x--x--x--x---|
Ab|-5-5-5-5-6-6-6-6-7-7-7-7-8--8--8--8---|
Eb|-3-3-3-3------------------------------|
At wala nang ibang makapagbabago ng aking 

Guitar 2:

  (fast picking)
eb|--10~-11~-12~-11~---------------|
Bb|--------------------------------|
Gb|--------------------------------|




Guitar 1:

eb|-----------------------------------|
Bb|-5--5----4-------------------------|
Gb|-5--5----5-------------------------|
Db|-5--5----5-------------------------|
Ab|-3--3----3-------------------------|
Eb|-----------------------------------|
   isip, sayo...

Guitar 2:

eb|--8-88-8-88-8-88-8-88-8-88-8-88-8-88-88-8-|
Bb|------------------------------------------|
Gb|------------------------------------------|



VERSE:
=======

Guitar 1: G-Bm-C-Cm (1 strum each chord)
Guitar 2: 

eb|-7-77-6-66-5-55-4-44-3-33-2-22-1-11-0-00------------------------|
Bb|-----------------------------------------4-44-3-33-2-22-1-11-0--|
Gb|----------------------------------------------------------------|

Wari di ko na malimot
Mga galaw at kilos mo
Sa aking pagtulog



Guitar 1: G-Bm-C-Cm (strum)
Guitar 2: 

eb|--3-3-3-3-3-5-3-3-|
Bb|--3-3-3-3-3-3-3-3-| repeat 4x
Gb|------------------|

At sa panaginip
Ikay mamalagi
Di na muling malulumbay
Sa aking paggising


CHORUS:
======= 

BOth guitars

           G      Bm        C         Am
eb|----------------------------------------|
Bb|--------3-3----3---------5-5-------1-1--|
Gb|--------4-4----4---------5-5-------2-2--| 2x
Db|--------5-5----4---------5-5-------2-2--|
Ab|--------5-5----2---------3-3-------0-0--|
Eb|----------------------------------------|
    Anong na--darama tuwing nakikita kang 
    dumarating  tuliro di malaman anong gagawin at

eb|-----------------------------------|
Bb|-----------------------------------|
Gb|---------8-8-8-8-9-9-9-9-8-8-8-8---| 2x
Db|-5-5-5-5-x-x-x-x-x-x-x-x-x-x-x-x---|
Ab|-5-5-5-5-6-6-6-6-7-7-7-7-6-6-6-6---|
Eb|-3-3-3-3---------------------------|
   Walang sinumang makapipigil sa akin
   At wala nang ibang makapagbabago ng aking 




eb|-----------------------------------|
Bb|-5--5----4-------------------------|
Gb|-5--5----5-------------------------|
Db|-5--5----5-------------------------|
Ab|-3--3----3-------------------------|
Eb|-----------------------------------|
   isip, sayo...

           G      Bm        
eb|--------------------------|
Bb|--------3-3-----3---------|
Gb|--------4-4-----4---------|
Db|--------5-5-----4---------|
Ab|--------5-5-----2---------|
Eb|--------------------------|
    Anong na---darama

SOLO:
======

malapit ko nang nakuha to... ill upd8 ds soon... ^_^

Guitar 1 strum G-Bm-C-Cm (2x)


CHORUS:
======= 

BOth guitars (pakinggan nyo nlng ung song para sa timing...)

           G      Bm        C         Am
eb|----------------------------------------|
Bb|--------3------3---------5---------1----|
Gb|--------4------4---------5---------2----|
Db|--------5------4---------5---------2----|
Ab|--------5------2---------3---------0----|
Eb|----------------------------------------|
    Anong na--darama tuwing nakikita kang 
    dumarating  tuliro di malaman anong gagawin at


eb|-----------------------------------|
Bb|-----------------------------------|
Gb|---------8-8-8-8-9-9-9-9-8-8-8-8---|
Db|-5-5-5-5-x-x-x-x-x-x-x-x-x-x-x-x---|
Ab|-5-5-5-5-6-6-6-6-7-7-7-7-6-6-6-6---|
Eb|-3-3-3-3---------------------------|
   Walang sinumang makapipigil sa akin
   At wala nang ibang makapagbabago ng aking 


eb|-----------------------------------|
Bb|-5--5----4-4-4-4-4-4-4-4-----------|
Gb|-5--5----5-5-5-5-5-5-5-5-----------|
Db|-5--5----5-5-5-5-5-5-5-5-----------|
Ab|-3--3----3-3-3-3-3-3-3-3-----------|
Eb|-----------------------------------|
   isip, sayo...




           G      Bm        C         Am
eb|----------------------------------------|
Bb|--------3------3---------5---------1----|
Gb|--------4------4---------5---------2----| 2x
Db|--------5------4---------5---------2----|
Ab|--------5------2---------3---------0----|
Eb|----------------------------------------|
    Anong na--darama ngayon at nandirito ka 
    saking tabi  tuliro di malaman anong gagawin at

eb|-----------------------------------|
Bb|-----------------------------------|
Gb|---------8-8-8-8-9-9-9-9-8-8-8-8---| 2x
Db|-5-5-5-5-x-x-x-x-x-x-x-x-x-x-x-x---|
Ab|-5-5-5-5-6-6-6-6-7-7-7-7-6-6-6-6---|
Eb|-3-3-3-3---------------------------|
   Walang sinumang makapipigil sa akin
   At wala nang ibang makapagbabago ng aking 

            Cm (break)
eb|-----------------------------------|
Bb|-5--5----4-------------------------|
Gb|-5--5----5-------------------------|
Db|-5--5----5-------------------------|
Ab|-3--3----3-------------------------|
Eb|-----------------------------------|
   isip, sayo...


OUTRO: (repeat until fade)
=======

Guitar 1:

    G        Bm       C        Cm
eb|------------------------------------|
Bb|-3-3-3-3--3-3-3-3--5-5-5-5--4-4-4-4-|
Gb|-4-4-4-4--4-4-4-4--5-5-5-5--5-5-5-5-| 
Db|-5-5-5-5--4-4-4-4--5-5-5-5--5-5-5-5-|   
Ab|-5-5-5-5--2-2-2-2--3-3-3-3--3-3-3-3-|
Eb|------------------------------------|


~ FADE, End ~





+------------------------------------------------+
|                  3. Movie                      |
|             Words: Armovit, Yuzon              |
|                Music: Yuzon                    |
+------------------------------------------------+

========================
CHORDS USED:

E    - x79900
E/Eb - x69800
C#m  - x46654
B    - x24400
G#m  - 466444 or 466400
A    - x02200 or 577600
========================

Verse I:

E
The movie’s done once more
E
The mood sets in with lights
E                           E/Eb (d ako sure sa name ng chord)
Let’s wait for them to leave
                           E
I was never one for crowds

E                        A
I look down on the floor
E
Everything’s undone
E                           A
Yet we’ve been so much more
                           E
Than a full length feature

Interlude: E E/Eb A C#m-B

G#m             
We long for escape
           A
Let this memory take shape
           E               E/Eb
For the heroes we often see
         G#m
I don’t know if it’s me 
          A
Or the movies we’ve seen
                E
I don’t remember
E/Eb
As well as i should

Chorus:

E          E/Eb             A      C#m-B
I stay so silent with your arms adjacent
       E         E/Eb      A   C#m-B
And credits may soon roll away

Interlude: E A E E/Eb

Verse II:

G#m                  A
You have my jacket on
E             
Comfort in my warmth
                 E/Eb
I’m used to the cold
E/Eb
I’m used to the cold

G#m
And i hope you’d agree
          A
How this story should be
       E                       E/Eb
How i wish i could change the scenes
           G#m
I’d write on the next page
           A
An early coming of age
            E
For me to tell you
E/Eb
As well as i could

Chorus:

E          E/Eb             A      C#m-B
I stay so silent with your arms adjacent
       E         E/Eb      A   C#m-B
And credits may soon roll away

       E          E/Eb        A        C#m-B
Could I stay so silent with your arms adjacent
       E         E/Eb            A   C#m-B
The vagueness may soon come to light

(guitar only)

Should
E          E/Eb             A      C#m-B
I stay so silent with your arms adjacent
   E         E/Eb          A   C#m-B
As i play my part in our show

(play chorus chords)

Forever shall i be the ill-fated type
Forever must i be the one you confide to
Forever must i be the pages you need
For you to write all the secrets that
You hope i would keep
Forever must i drive you home late at night
After watching these films that seem to imitate life
Forever must i be the opinion you seek
Forever will i be the friend that you would keep

Outro: E E/Eb A 

End with A

~ the end ~


\                                          /
  4 my bestfrend... u know hu u r... ^_^ 
  - 4ever wil I b d frend dat u wud keep - 
/                                          \




+------------------------------------------------+
|              4. The Wandering                  |
|             Words: Armovit, Yuzon              |
|       Music: Armovit, Cantada, Dilay, Yuzon    |
+------------------------------------------------+

NOTE: POWERCHORDS for the whole song except the solo part.

INTRO:
======

e|-------------------------------------------------------------|
B|-------------------------------------------------------------|
G|-999999999-----------------9-9-9-9-9-9-9-9-7---7-7-7-7-7-7---|
D|-999999999-7-7-7-7-7-7-7-7-9-9-9-9-9-9-9-9-7---7-7-7-7-7-7---|
A|-777777777-7-7-7-7-7-7-7-7-7-7-7-7-7-7-7-7-5---5-5-5-5-5-5---|
E|-----------5-5-5-5-5-5-5-5 ----------------------------------|

VERSE:
======

(powerchords)

C (let ring)                                        Am
Kate is a little restless as she wipes her brow and for a second 
                 Em
She hesitates to move
            D
Its all to soon...

C 
I look inside and feign suspicion
              Am
Logic hand in hand with reason swoons beneath the
Em                D
truth, takes a beating

CHORUS:
======

F  
Ohhh..
Am
Open up from under me

F
Ohhh..
Am                 Bb
Sing to me a remedy


e|----------------------------|
B|----------------------------|
G|--5-77-5-7---5-7--7---5-7---|
D|--5-77-5-7---5-7--7---5-7---|
A|--3-55-3-5---3-5--5---3-5---|
E|----------------------------|

   F    Em  C  B C B    Am                        F
e|----------------------------------------------------------------|
B|----------------------------------------------------------------|
G|-10---9---5--4/5\4----------------------------------------------|
D|-10---9---5--4/5\4----7---7-7-7-7-7-7-7---------3-3-3-3-3-3-3-3-|
A|-8----7---3--2/3\2----7---7-7-7-7-7-7-7---------3-3-3-3-3-3-3-3-|
E|----------------------5---5-5-5-5-5-5-5---------1-1-1-1-1-1-1-1-|
   Why cant I sever the ties with the unforgiving sky

                    Am
The past of all my lies
              F                     G
Vestiges of smoke cloud my view of hope
                  Am                   F
Six feet of concrete right beneath my feet
          C           
And I am lost again


INTERLUDE:
======
e|-------------------------------------------------------------|
B|-------------------------------------------------------------|
G|-999999999-----------------9-9-9-9-9-9-9-9-7---7-7-7-7-7-7---|
D|-999999999-7-7-7-7-7-7-7-7-9-9-9-9-9-9-9-9-7---7-7-7-7-7-7---|
A|-777777777-7-7-7-7-7-7-7-7-7-7-7-7-7-7-7-7-5---5-5-5-5-5-5---|
E|-----------5-5-5-5-5-5-5-5 ----------------------------------|


VERSE 2:
======

C (let ring)                                      Am
Kate is a little hopeless as she looks at me and for a second
                 Em
She hesitates to move
       D
Its all to soon...

C
Beneath her facade lies another bewilders me further
              Am
And I am so endlessly drawn
                         Em
Endlessly drawn to the truth
         D
Takes new meaning



CHORUS:
======

F  
Ohhh..
Am
Open up from under me

F
Ohhh..
Am                 Bb
Sing to me a remedy


e|----------------------------|
B|----------------------------|
G|--5-77-5-7---5-7--7---5-7---|
D|--5-77-5-7---5-7--7---5-7---|
A|--3-55-3-5---3-5--5---3-5---|
E|----------------------------|

   F    Em  C  B C B    Am                        F
e|----------------------------------------------------------------|
B|----------------------------------------------------------------|
G|-10---9---5--4/5\4----------------------------------------------|
D|-10---9---5--4/5\4----7---7-7-7-7-7-7-7---------3-3-3-3-3-3-3-3-|
A|-8----7---3--2/3\2----7---7-7-7-7-7-7-7---------3-3-3-3-3-3-3-3-|
E|----------------------5---5-5-5-5-5-5-5---------1-1-1-1-1-1-1-1-|
   Why cant I sever the ties with the unforgiving sky

                    Am
The past of all my lies
              F                     G
Vestiges of smoke cloud my view of hope
                  Dm                   F
Six feet of concrete right beneath my feet
          G           
And I am lost again



e|------------------------------------------------------------|
B|------------------------------------------------------------|
G|------------------------------------------------------------|
D|--7---5-7-5-7---7---5-7-5-7---3---2-3-2-3---3---2-3-2-3-----|
A|--7---5-7-5-7---7---5-7-5-7---3---2-3-2-3---3---2-3-2-3-----|
E|--5---3-5-3-5---5---3-5-3-5---1---0-1-0-1---1---0-1-0-1-----|

                             |--3--|
e|------------------------------------------------------------|
B|------------------------------------------------------------|
G|------------------------------------------------------------|
D|--7---5-7-5-7---7---5-7-5--7--7--7---3---3-3-3-3-3-3-3------|
A|--7---5-7-5-7---7---5-7-5--7--7--7---3---3-3-3-3-3-3-3------|
E|--5---3-5-3-5---5---3-5-3--5--5--5---1---1-1-1-1-1-1-1------|



e|---------------------------------------------------------------|
B|---------------------------------------------------------------|
G|-/10---9---5--4/5\4--/10---9---5--4/5\4------------------------|
D|-/10---9---5--4/5\4--/10---9---5--4/5\4---7-----7-----7-9-5----|
A|-/8----7---3--2/3\2--/8----7---3--2/3\2---7-----7-----7-9-5----|
E|------------------------------------------5-----5-----5-7-3----|

(plucking part)
   G              Am             F#m             G
e|-----------------------------------------------------------------|
B|----0-0----0-0----------------------------------0-0---0-0--------|
G|---0-0----0-0------5-5----5-5-----2-2----2-2---0-0---0-0---------| 2x
D|------------------7-7----7-7-----4-4----4-4----------------------|
A|-----------------------------------------------------------------|
E|-3------3------/5------5-------2------2-------3-----3------------|
    C                 D                 C                 Bm
e|--------------------------------------------------------------------------|
B|--------------------------------------------------------------------------|
G|--------------------------------------------------------------------------|
D|------5-5------5-5------7-7------7-7------5-5------5-5------4-4------4-4--|
A|--3--3-3---3--3-3---5--5-5---5--5-5---3--3-3---3--3-3---2--2-2---2--2-2---|
E|--------------------------------------------------------------------------|


Guitar 1 plays the chords written above the tabs
Guitar 2 plays the solos

     Em       Am       C       Bm       
e|--17b(19)---19\17----17-------------|
B|------------------------------------|
G|------------------------------------|
D|------------------------------------|
A|------------------------------------|
E|------------------------------------|

     Em       Am       C       Bm 
e|--17b(19)-------\17-/10------19~----|
B|------------------------------------|
G|------------------------------------|
D|------------------------------------|
A|------------------------------------|
E|------------------------------------|

     Em       Am       C       Bm 
e|--5/7------/10------/12------/14----|
B|------------------------------------|
G|------------------------------------|
D|------------------------------------|
A|------------------------------------|
E|------------------------------------|

     Em       Am         C       Bm 
e|---12-------12b(14)12--10------8-7--5---3/5---------|
B|----------------------------------------------------|
G|----------------------------------------------------|
D|----------------------------------------------------|
A|----------------------------------------------------|
E|----------------------------------------------------|



LAST CHORUS:
======

   G (strum) G/F#                Em              D
e|--------------------------------------------------------|
B|--------------------------------------------------------|
G|-----------------------------------------------7-7-7-7--| repeat these
D|-5-5-5-5---4-4-4-4-------------2-2-2-2---------7-7-7-7--| chords until end...
A|-5-5-5-5---5-5-5-5-------------2-2-2-2---------5-5-5-5--|
E|-3-3-3-3---2-2-2-2-------------0-0-0-0------------------|
   Lower me, evasive as these.. keep you..in my dreams...
   Lower me, illusive as these..keep you..in my dreams...

end with G

~ END ~

+------------------------------------------------+
|                  5. Gunita                     |
|          Words & Music: Armovit, Yuzon         |
|          Add'l Guitars: Patrick Tirano         |                    
+------------------------------------------------+

CHORDS USED:

C    - x32010
Cm   - x35543
D    - xx0232
Em   - 022000
D/F# - 200233
Am   - x02210
Bm   - x24432
G/B  - x20033

   riff 1      riff 2     riff3
e|--3/10--------10\7------12\7------------------------|
B|--3/10----------------------------------------------|
G|----------------------------------------------------|
D|----------------------------------------------------|
A|----------------------------------------------------|
E|----------------------------------------------------|

INTRO: drums
   


VERSE 1:
======

Guitar 1: chords
Guitar 2: riffs

(riff1)C           D
    Patuloy na pumapatak
 (riff2)Em          D/F#(riff1)
Ang bawat sandaling natitira
C        D     (riff2)Em
Habang ikay kapiling ko

(riff1)C             D   (riff2)Em
      Siguro ngay maraming dahilan
       D/F#     (riff1)
Kang maibibigay ngunit
C         D  (riff2)Em      D/F#
Ako ay may isang tanong


CHORUS:
======

(riff1)C       (riff3)G
       Di ka ba magtatagal
(riff1)C          Cm           G
    Pagtigil moy dalangin na aking inaasam
(riff1)C       (riff3)G
       Siguro ngay paalam na
(riff1)Am      Bm   C     D     G
     Subalit may iiwan kang puwang

VERSE 2:
======

C               D                Em
Kung kaya kong pigilan lang ang oras
     D/F#
Sa kanyang pintig
C            D           Em     D/F#
Asahan mong akoy di hihinto  Woohh...

CHORUS:
======

(riff1)C             (riff3)G
       Akoy isang manhid na di makikinig
(riff1)C               (riff3)G
       Sa bawat sasabihin ng mundo
(riff1)C             (riff3)G
       Akoy isang manhid na di makikinig
Am        Bm   C     D  G
Hanggang ikaw pay naririto


SOLO:
======
   C     D       Em        D/F#
e|-3/5---5/7------------------------------------------|
B|----------------------------------------------------|
G|----------------------------------------------------|
D|----------------------------------------------------|
A|----------------------------------------------------|
E|----------------------------------------------------|

   C       D       Em        
e|-10\7--7\5------------------------------------------|
B|----------------------------------------------------|
G|----------------------------------------------------|
D|----------------------------------------------------|
A|----------------------------------------------------|
E|----------------------------------------------------|

   C       D       Em        D/F#
e|-10------2-2-3-3/10-------7-7\5-5-5\3---------------|
B|----------------------------------------------------|
G|----------------------------------------------------|
D|----------------------------------------------------|
A|----------------------------------------------------|
E|----------------------------------------------------|

   C       D       Em                D/F#
e|-/7----5-5\3--3-2-0--------0--2--5--2--3--5--7/10---|
B|----------------------------------------------------|
G|----------------------------------------------------|
D|----------------------------------------------------|
A|----------------------------------------------------|
E|----------------------------------------------------|

CHORUS:
======

(riff1)C       (riff2)G
       Di ka ba magtatagal
(riff1)C          Cm           G
    Pagtigil moy dalangin na aking inaasam
       C               G
       Siguro ngay paalam na
       Am     G/B   C    G/B     G
     Subalit may iiwan kang puwang

C           D
Patuloy na pumapatak
    Em         D/F#
Ang bawat sandaling natitira
C        D     (riff2)Em
Habang ikay kapiling ko

~ END ~

+------------------------------------------------+
|           6. Do You Know the Feeling           |
|             Words: Armovit, Yuzon              |
|              Music: Yan Yuzon                  |
+------------------------------------------------+

VERSE:
======
   D               D/C#?           F#m             G
e|-----------------------------------------------------------------|
B|-----------------------------------------------------------------|
G|-7-7-7-7-7-7-7-7-6-6-6-6-6-6-6-6---------------------------------| 4x
D|-7-7-7-7-7-7-7-7-7-7-7-7-7-7-7-7-4-4-4-4-4-4-4-4-5-5-5-5-5-5-5-5-|
A|-5-5-5-5-5-5-5-5-4-4-4-4-4-4-4-4-4-4-4-4-4-4-4-4-5-5-5-5-5-5-5-5-|
E|---------------------------------2-2-2-2-2-2-2-2-3-3-3-3-3-3-3-3-|
   I look back to me and what do i see? It must have been 1993
   Had no other care but the wave of your hair and the way you wouldnt look at me
   What happened that day has managed to stay through a decade worth of misery
   But what did I miss, a moment of bliss -- the best of all the years gone by


     C#  D
e|------------|
B|------------|
G|---6---7----|
D|---6---7----|
A|---4---5----|
E|------------|
          YEAH!!


CHORUS:
======

   G                          C# D
e|--------------------------------------|
B|--------------------------------------|
G|----------------------------6--7------| 4x
D|-5-5-5-5-5-5-5-5-5-5-5-5-5--6--7------| 
A|-5-5-5-5-5-5-5-5-5-5-5-5-5--4--5------|
E|-3-3-3-3-3-3-3-3-3-3-3-3-3------------|
   Do you know the feeling?

   Em              F#m             G               A (break sa 2nd round)
e|-------------------------------------------------------------------|
B|-------------------------------------------------------------------|
G|-------------------------------------------------------------------| 2x
D|-2-2-2-2-2-2-2-2-4-4-4-4-4-4-4-4-5-5-5-5-5-5-5-5-7-7-7-7-7-7-7-7---|
A|-2-2-2-2-2-2-2-2-4-4-4-4-4-4-4-4-5-5-5-5-5-5-5-5-7-7-7-7-7-7-7-7---|
E|-0-0-0-0-0-0-0-0-2-2-2-2-2-2-2-2-3-3-3-3-3-3-3-3-5-5-5-5-5-5-5-5---|
   I want to hold your hand and try to dance but I cant
   I want this just one kiss the years fall away

     C#  D
e|------------|
B|------------|
G|---6---7----|
D|---6---7----|
A|---4---5----|
E|------------|

   G                          C# D
e|--------------------------------------|
B|--------------------------------------|
G|----------------------------6--7------| 3x
D|-5-5-5-5-5-5-5-5-5-5-5-5-5--6--7------| 
A|-5-5-5-5-5-5-5-5-5-5-5-5-5--4--5------|
E|-3-3-3-3-3-3-3-3-3-3-3-3-3------------|
   Do you know the feeling?

   G                         
e|------------------------|
B|------------------------|
G|------------------------| 
D|-5-5-5-5-5-5-5-5--------| 
A|-5-5-5-5-5-5-5-5--------|
E|-3-3-3-3-3-3-3-3--------|
   Do you know that...

   Em              F#m             G               A
e|-------------------------------------------------------------------|
B|-------------------------------------------------------------------|
G|-------------------------------------------------------------------| 3x
D|-2-2-2-2-2-2-2-2-4-4-4-4-4-4-4-4-5-5-5-5-5-5-5-5-7-7-7-7-7-7-7-7---|
A|-2-2-2-2-2-2-2-2-4-4-4-4-4-4-4-4-5-5-5-5-5-5-5-5-7-7-7-7-7-7-7-7---|
E|-0-0-0-0-0-0-0-0-2-2-2-2-2-2-2-2-3-3-3-3-3-3-3-3-5-5-5-5-5-5-5-5---|
   I want to hold your hand but time moves faster now that 
   I stand still so speechless how can I bridge the distance
   It just might feel so right if you could hold me tonight
  
   Bm              C               G               A
e|------------------------------------------------------|
B|------------------------------------------------------|
G|-4-4-4-4-4-4-4-4-5-5-5-5-5-5-5-5----------------------|
D|-4-4-4-4-4-4-4-4-5-5-5-5-5-5-5-5-5-5-5-5-5-5-5-5-7----|
A|-2-2-2-2-2-2-2-2-3-3-3-3-3-3-3-3-5-5-5-5-5-5-5-5-7----|
E|---------------------------------3-3-3-3-3-3-3-3-5----|
   I want this just one kiss The years fall away



e|--------------------------------|
B|--------------------------------|
G|-9/11--9-7-------7---7---6--7---|
D|-----------9-7-9---9-----6--7---|
A|-------------------------4--5---|
E|--------------------------------|


SOLO:
======

Guitar 1: play chorus chords
Gutiar 2:

   G               C#-D  G                                C#-D
e|----------------------------10----12/14---14\12---10-----------|
B|------------------------/12----12--------------------10~-------|
G|---9/11-11\9-7-------------------------------------------------|
D|---------------9-----------------------------------------------|
A|---------------------------------------------------------------|
E|---------------------------------------------------------------|

   G                            C#-D  G
e|-17^19---17^19-17^19--17p15p14--------19b(22)-/22-22-22-20-19--|
B|---------------------------------------------------------------|
G|---------------------------------------------------------------|
D|---------------------------------------------------------------|
A|---------------------------------------------------------------|
E|---------------------------------------------------------------|


CHORUS:
======

e|---------------------------------------------------|
B|---------------------------------------------------|
G|---------------------------------------------------| 3x
D|-5-------------------------------------------------|
A|-5--------4h5--------------------------------------|
E|-3-------------5-----------------------------------|
   Do you know the feeling?

  (lead sa 3rd round)
e|--9^10--------------------|
B|--------------------------|
G|-10^11(10)----------------|
D|--------------------------|
A|--------------------------|
E|--------------------------|


   G                         
e|------------------------|
B|------------------------|
G|------------------------| 
D|-5-x-x-x-x-x-x-x--------| 
A|-5-x-x-x-x-x-x-x--------|
E|-3-x-x-x-x-x-x-x--------|
   Do you know that...

   Em              F#m             G               A
e|-------------------------------------------------------------------|
B|-------------------------------------------------------------------|
G|-------------------------------------------------------------------| 2x
D|-2-2-2-2-2-2-2-2-4-4-4-4-4-4-4-4-5-5-5-5-5-5-5-5-7-7-7-7-7-7-7-7---|
A|-2-2-2-2-2-2-2-2-4-4-4-4-4-4-4-4-5-5-5-5-5-5-5-5-7-7-7-7-7-7-7-7---|
E|-0-0-0-0-0-0-0-0-2-2-2-2-2-2-2-2-3-3-3-3-3-3-3-3-5-5-5-5-5-5-5-5---|
   I want this just one kiss tonight its all that matters
   I want this just one kis and it will all be over




CHORUS 2:
======

Guitar 1:

   F#m             G#m               A             B (pause sa 4th round)
e|-------------------------------------------------------------------|
B|-------------------------------------------------------------------|
G|-------------------------------------------------------------------| 4x
D|-4-4-4-4-4-4-4-4-6-6-6-6-6-6-6-6-7-7-7-7-7-7-7-7-9-9-9-9-9-9-9-9---|
A|-4-4-4-4-4-4-4-4-6-6-6-6-6-6-6-6-7-7-7-7-7-7-7-7-9-9-9-9-9-9-9-9---|
E|-2-2-2-2-2-2-2-2-4-4-4-4-4-4-4-4-5-5-5-5-5-5-5-5-7-7-7-7-7-7-7-7---|
   Whenever, wherever lets finish what we started
   From back then, my silence spoke through a ten year absence
   In secret still feel it just take my hand and follow
   Walk with me til tomorrow you wont have to dance  

Guitar 2:

e|-0-0-0-0-0-0-0-0-2-2-2-2-2-2-2-2-4-4-4-4-4-4-4-4-7-7-7-7-7-7-7-7---|
B|-------------------------------------------------------------------|
G|-------------------------------------------------------------------| 4x
D|-------------------------------------------------------------------|
A|-------------------------------------------------------------------|
E|-------------------------------------------------------------------|


VERSE 3:
======
 
   E               E/Eb            G#m             A
e|--------------------------------------------------------------------|
B|--------------------------------------------------------------------|
G|-9-9-9-9-9-9-9-9-8-8-8-8-8-8-8-8------------------------------------| 4x
D|-9-9-9-9-9-9-9-9-9-9-9-9-9-9-9-9-6-6-6-6-6-6-6-6-7-7-7-7-7-7-7-7----|
A|-7-7-7-7-7-7-7-7-6-6-6-6-6-6-6-6-6-6-6-6-6-6-6-6-7-7-7-7-7-7-7-7----|
E|---------------------------------4-4-4-4-4-4-4-4-5-5-5-5-5-5-5-5----|
   Now that I see youve grown out of me I guess its back to reality
   One night at the park held your hands in the park made some promises we couldnt keep
   Some days I had won now here i am on, a tym and place apart from me
   And what did I miss, a moment of bliss -- the best of all the years gone by

end with A

~ END ~

+------------------------------------------------+
|          7. Sa Bingit ng Isang Paalam          |
|                 Words: Dilay                   |
|                 Music: Dilay                   |
+------------------------------------------------+


VERSE 1:
======

F 
Sa isang tingin ko lang 
              Cm
Agad ko nang napupuna
Gm
Sa likod ng yong ngiti
Bb
At kung paano ka tumitig sakin


F
Tulad ng unang bituing
       Cm       
Iyong matatanaw
Gm
Sa nag-aambang dilim
Bb
Buong ningning parin kahit makain


REFRAIN:
======

Dm                  Am
Kinakailangan nga bang magtuos?
Bb                     F C
Wala tayong dapat simulan
Dm                  Am
Akoy kaharap mot nandito ngayon
Gm                Bb
Sabihin kung naguguluhan


CHORUS:
======

F                            Am
Sa isang paalam lamang ba lahat magtatapos?
Dm                C         Bb
Sa isang saglit lahat malilipol
F                     Am
Di ko mahahayaan na walang magagawa
Dm             C       Bb
Ayaw kitang lumuhang nag-iisa

VERSE 2:
======

F                          Cm
Pasensya nat akoy muling nauutal
Gm          
Bumabagal ang pintig
Bb
Bumibigat laman ng aking dibdib


F                           Cm
Hayaan mong hawakan ko ang yong kamay
Gm                        Bb
Upang mapawi ang lamig ng init pang nararamdaman

REFRAIN:
======

Dm                  Am
Kailangan nating isiping lubos
Bb                     F  C
Ano nga bang ating dahilan
Dm                 Am
San nga ba tayo nakatuon
Gm                 Bb
Kay rami nang mga nagdaan


CHORUS:
======

F                            Am
Sa isang paalam lamang ba lahat magtatapos?
Dm                C         Bb
Sa isang saglit lahat malilipol
F                     Am
Di ko mahahayaan na walang magagawa
Dm             C       Bb
Ayaw kitang lumuhang nag-iisa


Gm                        Bb
Kung meron lang ako ng pagkakataong
Gm                Bb
Sabihin sayo ang lahat


INTERLUDE:
======

e|------------------------------------------------------|
B|------------------------------------------------------|
G|-5-5---7-----------------------------7-7---5-5--------| 2x
D|-5-5---7-----7-7-8-8-----5-5---3-----7-7---5-5--------|
A|-3-3---5-----7-7-8-8-----5-5---3-----5-5---3-3--------|
E|-------------5-5-6-6-----3-3---1----------------------|


VERSE 3:
======

F
Maya mayay
              Cm
Di na rin magtatagal
Gm
Matatapos ang gabit
      Bb
Ang nagdaay di na mananatili


REFRAIN:
======

Dm                 Am
Saan nga ba tayo nakatuon
Gm                  Bb
Ano nga bang ating dahilan?

CHORUS:
======

F                            Am
Sa isang paalam lamang ba lahat magtatapos?
Dm                C         Bb
Sa isang saglit lahat malilipol
F                     Am
Di ko mahahayaan na walang magagawa
Dm             C       Bb
Ayaw kitang lumuhang nag-iisa


Gm                        Bb
Kung meron lang ako ng pagkakataong
Gm                        Bb
Kung meron lang ako ng pagkakataong
(no guitars)
Sabihin sayo ang lahat..

+------------------------------------------------+
|              8. Myself In You                  |
|                All: Cantada                    |
+------------------------------------------------+

INTRO:
======

e|----------------------------------------------------------------------|
B|----------------------------------------------------------------------|
G|---9-10--12--14---9--9-10--12--14---9--9-10--12--14--10-10---9--9-----| 4x
D|--10-10--14--15--10-10-10--14--15--10-10-10--14--15--12-12--10-10-----|
A|----------------------------------------------------------------------|
E|----------------------------------------------------------------------|

e|----------------------------------------------------------------------|
B|--555h6-5h6-5h6-5-555h6-5h6-5h6-5-555h6-5h6-5h6-5-555h6-5h6-5h6-------|
G|----------------------------------------------------------------------| 4x
D|----------------------------------------------------------------------|
A|----------------------------------------------------------------------|
E|----------------------------------------------------------------------|



VERSE 1:
======

     F    Dm   Am       Bb
e|--------5---------------------------------------------|
B|--------6----------5--------6-------------------------|
G|---9----7--------5--------7---------------------------|
D|--10----7------7--------8-----------------------------|
A|---8--------------------------------------------------|
E|-------------5--------6-------------------------------|

(VERSE: play the riffs on the tab above for each chord)

F            Dm         Am       Bb
I'll find a way to come home to you
F          Dm           Am  Bb
Tomorrows not that far away

F            Dm         Am          Bb
I kiss your lips in my head, every night
F          Dm               Am               Bb
I dream about the endless fire, the flaming sky

(strum na d2)


REFRAIN:
======

Am     Bb        Gm             C
Find me, coz im lost in this reality
Am     Bb        Gm             C
Find me, coz ill let you, ill let you


CHORUS:
======

Bb-Am        C   
I...  just want to say, please just stay with me
Bb-Am     C
I...  am not ashamed to be the same with you
Bb-Am  Dm-Gm Bb-C
I...   I...  I find myself in you


INTERLUDE:
======

e|----------------------------------------------------------------------|
B|----------------------------------------------------------------------|
G|---9-10--12--14---9--9-10--12--14---9--9-10--12--14--10-10---9--9-----| 4x
D|--10-10--14--15--10-10-10--14--15--10-10-10--14--15--12-12--10-10-----|
A|-----------------------------------------------------12-12--10-10-----|
E|----------------------------------------------------------------------|

e|----------------------------------------------------------------------|
B|--555h6-5h6-5h6-5-555h6-5h6-5h6-5-555h6-5h6-5h6-5-555h6-5h6-5h6-------|
G|----------------------------------------------------------------------| 4x
D|----------------------------------------------------------------------|
A|----------------------------------------------------------------------|
E|----------------------------------------------------------------------|

VERSE 2:
=====

     F    Dm   Am       Bb
e|--------5---------------------------------------------|
B|--------6----------5--------6-------------------------|
G|---9----7--------5--------7---------------------------|
D|--10----7------7--------8-----------------------------|
A|---8--------------------------------------------------|
E|-------------5--------6-------------------------------|

(VERSE 2: play the riffs on the tab above for each chord)

F          Dm          Am          Bb
Ive sat before on the floor of my room
F           Dm                 Am             Bb
I always thought that it would be like this real soon

F             Dm               Am             Bb
But now your here, nothing to fear with those eyes
F           Dm            Am                     Bb
I cant explain why i grow weak when you look into mine


REFRAIN:
======

Am     Bb        Gm             C
Find me, coz im lost in this reality
Am     Bb        Gm             C
Find me, coz ill let you, ill let you


CHORUS:
======

Bb-Am        C   
I...  just want to say, please just stay with me
Bb-Am     C
I...  am not ashamed to be the same with you
Bb-Am  Dm-Gm Bb-C
I...   I...  I find myself in you

INTERLUDE: F Dm Am Bb (2x)


CHORUS:
======

Bb-Am        C   
I...  just want to say, please just stay with me
Bb-Am     C
I...  am not ashamed to be the same with you
Bb-Am  Dm-Gm Bb-C
I...   I...  I find myself in you

OUTRO:
======

e|----------------------------------------------------------------------|
B|----------------------------------------------------------------------|
G|---9-10--12--14---9--9-10--12--14---9--9-10--12--14-------------------| 2x
D|--10-10--14--15--10-10-10--14--15--10-10-10--14--15--12-12--10-10-----|
A|-----------------------------------------------------12-12--10-10-----|
E|----------------------------------------------------------------------|

e|----------------------------------------------------------------------|
B|--555h6-5h6-5h6-5-555h6-5h6-5h6-5-555h6-5h6-5h6-5-555h6-5h6-5h6-------|
G|----------------------------------------------------------------------| 2x
D|----------------------------------------------------------------------|
A|----------------------------------------------------------------------|
E|----------------------------------------------------------------------|

end with F

~ END ~

+------------------------------------------------+
|               8. All We Need                   |
|          Words & Music: Armovit, Yuzon         |
+------------------------------------------------+

INTRO:
======

e|----------------------------------------------------|
B|----------------------------------------------------|
G|-x-x-7----------------------------------------------|
D|-x-x-7---x-x-4---x-x-9---x-x-7---x-x-5--------------|
A|-x-x-5---x-x-4---x-x-9---x-x-7---x-x-5--------------|
E|---------x-x-2---x-x-7---x-x-5---x-x-3--------------|


then...


Guitar 1 plays the chords written above the tab (powerchords)
Guitar 2 plays the notes on the tab

    D       F#m     G        A  
e|----5---5---5---5---5---5-----10----10p9h10---------|
B|---------------------------8------8-----------------|
G|--7---7---6---6---4---4-----------------------------|
D|----------------------------------------------------|
A|----------------------------------------------------|
E|----------------------------------------------------|

VERSE:
======
palm mute

   D                F#m              G                A
e|----------------------------------------------------------------------|
B|----------------------------------------------------------------------|
G|-7-77777777777777-----------------------------------------------------|
D|-7-77777777777777-4-44444444444444-5-55555555555555-7-77777777777777--|
A|-5-55555555555555-4-44444444444444-5-55555555555555-7-77777777777777--|
E|------------------2-22222222222222-3-33333333333333-5-55555555555555--|

Been turning a blind eye for the longest time
Still I see where this is headed
And my mind is going should I risk it?

Its all been said and done before
Honestly Im out of patience
For anymore of your excuses

REFRAIN:
======
power chords prin

G                                   
Kicking and screaming inside lies a feeling
A
One lowly voice against a backdrop of noise
Bm
Am I on my own?
A                    G  A
Tonight ill let you know


CHORUS:
======
powerchords

D             
I light the fire for those of us who wept
A                                Bm
for all the heartache that we felt and this is all we need
G
This is all I need

D                            F#m                              
I sing along with each and everyone beneath the sorrow lies 
Bm              A                 G                    A
Someone whos reaching out for a hand whos reaching too


VERSE 2:
======
palm mute

   D                F#m              G                A
e|----------------------------------------------------------------------|
B|----------------------------------------------------------------------|
G|-7-77777777777777-----------------------------------------------------|
D|-7-77777777777777-4-44444444444444-5-55555555555555-7-77777777777777--|
A|-5-55555555555555-4-44444444444444-5-55555555555555-7-77777777777777--|
E|------------------2-22222222222222-3-33333333333333-5-55555555555555--|

A common tale if truth be told
Familiar as it seems
My story lies between


REFRAIN:
======

G               
Silent and seamless the sound of my weakness
A
Is drowned on the noise of a world with no voice
Bm
And I take it all
A                       G   A
TOnight the night will know


CHORUS:
======
powerchords

D             
I light the fire for those of us who wept
A                              Bm
for all the heartache that we felt and this is all we need
G
This is all I need

D                            F#m                              
I sing along with each and everyone beneath the sorrow lies 
Bm              A                 G                    A
Someone whos reaching out for a hand whos reaching too
G     A
Too...

BRIDGE:
======
powerchords

D                          (pause)        
Take flight when the nightlight's out of sight 
D/Db             (pause)
Take flight just go and take the night
Bm                   (pause)
Take flight as we share this drink tonight
G
Take flight its our fight I fight tonight

D       
Take flight when the nightlight's out of sight 
D/Db
Take flight just go and take the night
Bm
Take flight as we share this drink tonight
G
Take flight its our fight I fight tonight

D       
Take flight when the nightlight's out of sight 
D/Db
Take flight just go and take the night
Bm
Take flight as we share this drink tonight
G
Take flight its our fight I fight tonight

A
woah ohh...

REFRAIN:
======

G                                   
Kicking and screaming inside lies a feeling
A
One lowly voice against a backdrop of noise
Bm
Are we on our own?
A                     G  A
Tonight well let them know

LAST CHORUS:
======

D             
I light the fire for those of us who wept
A                              Bm
for all the heartache that we felt and this is all we need
G
This is all I need


D                                    F#m                             
I write this song for each and everyone beneath the sorrow lies 
Bm              A                 G                    
Someone whos reaching out for a hand whos reaching too

D   D/Db Bm G (2x)
   You...   

bagsak G...

~ END ~

+------------------------------------------------+
|                 10. Nocture                    |
|             Words & Music: Yuzon               |
|     Add'l sample Production: Yosef Garcia      |
|          Synth & Piano: Yuzon, Yuzon           |
|      Add'l vox: Bea Garcia & s.l. Chang        |
+------------------------------------------------+

   D     DM7   D7    G     Gm
e|----------------------------------------|
B|-7-----7-----7--------------------------|
G|-7-----6-----5-----4-----3--------------|
D|-7-----7-----7-----5-----5--------------|
A|-5-----5-----5-----5-----5--------------|
E|-------------------3-----3--------------|


VERSE: 
======
strum nyo lng...

D                    DM7
Laid my head on the pillow
                       D7
Watched the night go by
                        G
Watched the checkered pillowcases come alive
D                  DM7
Silence croons me slowly
                     D7
And I wonder how you are
                    G
Are you sleeping soundly?
                        Gm
You don't quite feel as far

CHORUS:
======

D              DM7          
Saw your name written on the ceiling
D7                     G
Not sure if I'm still dreaming of you
      Gm
I've seen you in my sleep

VERSE 2:
======
D DM7 D7 G (2x)

From across the room the clock leers
As I try to sleep again
I would rather shorten the night
Than lengthen the day
In sleep we lose our voices

Gm
I would rather spend it dreaming of you

CHORUS:
======

D              DM7          
Saw your name written on the ceiling
D7                     G
Not sure if I'm still dreaming of you
      Gm
I've seen you in my sleep

(repeat 2x except last line...)

     Gm              F#m
Ive seen you in my sleep

INTERLUDE:
======
F#m Am F#m Dm-G

CHORUS:
======

D              DM7          
Saw your name written on the ceiling
D7                     G
Not sure if I'm still dreaming of you
      Gm
I've seen you in my sleep

D              DM7          
Saw your name written on the ceiling
D7                     G
Not sure if I'm still dreaming of you
      Gm
I've seen you in my sleep

      Gm
I've seen you in my sleep

      Gm 
I've seen you in my sleep

      Gm               
I've seen you in my sleep...

~ END w/ D ~


+------------------------------------------------+
|                11. Pasubali                    |
|             Words & Music: Dilay               |
|        Add'l vocals: Patrick Tirano            |
|              Vibratone: M. Scam                |
+------------------------------------------------+

NOTE - powerchords lahat

INTRO:
======
e|-----------------------------------------------------------------------|
B|-----------------------------------------------------------------------|
G|-4-4-4-4-4-4-4-4/8-8-8-8-8-8-8-8---------------------------------------|
D|-4-4-4-4-4-4-4-4/8-8-8-8-8-8-8-8-6-6-6-6-6-6-6-6/-9----9-9/11-8---8-9--|
A|-2-2-2-2-2-2-2-2/6-6-6-6-6-6-6-6-6-6-6-6-6-6-6-6/---11----------9------|
E|---------------------------------4-4-4-4-4-4-4-4/----------------------|




Guitar 1:
e|-----------------------------------------------------------------------|
B|-----------------------------------------------------------------------|
G|-4-4-4-4-4-4-4-4-8-8-8-8-8-8-8-8---------------------------------------|
D|-4-4-4-4-4-4-4-4-8-8-8-8-8-8-8-8-6-6-6-6-6-6-6-6-5-5-5-5-5-5-5-5-------|
A|-2-2-2-2-2-2-2-2-6-6-6-6-6-6-6-6-6-6-6-6-6-6-6-6-5-5-5-5-5-5-5-5-------|
E|---------------------------------4-4-4-4-4-4-4-4-3-3-3-3-3-3-3-3-------|
Guitar 2:
e|-----------------------------------------------------------------------|
B|-----------------------------------------------------------------------|
G|-----------------------------------------------------------------------|
D|-----------------------------------------------------------------------|
A|-/6-6-4-4-2-2-4-4-6-6-4-4-2-2-4-4-6-6-4-4-2-2-4-4-6-6-4-4-2-2-4-4------|
E|-----------------------------------------------------------------------|



Guitar 1:
e|-----------------------------------------------------------------------|
B|-----------------------------------------------------------------------|
G|-4-4-4-4-4-4-4-4-8-8-8-8-8-8-8-8-----------------4-4-4-3-3-3-3-3-------|
D|-4-4-4-4-4-4-4-4-8-8-8-8-8-8-8-8-6-6-6-6-6-6-6-6-4-4-4-4-4-4-4-4-------|
A|-2-2-2-2-2-2-2-2-6-6-6-6-6-6-6-6-6-6-6-6-6-6-6-6-2-2-2-1-1-1-1-1-------|
E|---------------------------------4-4-4-4-4-4-4-4-----------------------|
Guitar 2:
e|----------------------------------------------------------------------------------|
B|----------------------------------------------------------------------------------|
G|-11-11-9-9-8-8-9-9-11-11-9-9-8-8-9-9-11-11-9-9-8-8-9-9-11-11-9-9-8-8-9-9-11-11----|
D|----------------------------------------------------------------------------------|
A|-/9--9-7-7-6-6-7-7--9--9-7-7-6-6-7-7--9--9-7-7-6-6-7-7--9--9-7-7-6-6-7-7--9--9----|
E|----------------------------------------------------------------------------------|



VERSE:
======

B                                  B/Bb
Kung pwede lang 'wag mo na 'tong iwasan
     E                      F#
At 'wag mo ring ituring na biro
B                        B/Bb
marahil 'to'y 'di mo inaasahan
     E                      F#
pero sana'y 'wag ipinid ang pinto


REFRAIN:
======

G#m         F#
Itikom ang bibig
E
Mata'y ibaling sa 'kin
G#m               F#        E
Pakinggan mo ang sasabihin ko

CHORUS:
======

B            
Kailan mo ba matututunan?
Eb
kailan mo ba 'pagsisigawang 
G#m                     G
Di mo na 'pagkakailang tayo?
B
Kay rami nang pinagdaanan
Eb
Ano pa bang 'yong kailangan?
G#m                      B B-Bb
Nagsusumamo na sabihin mo


INTERLUDE: B-Eb-E


VERSE:
======

B-Eb-E-F#
B-Eb-E-B

Ang diwa ko'y tigib sa kakaisip
Sa sarili'y laging may kinikimkim
Patuloy lamang bang mananaginip?
At mananatili lang na nakapikit?

REFRAIN:
======

G#m         F#
Akoy mayrong batid
E
Itoy iyong pag amin
G#m              F#        E
Hindi na natin maiiwasan to


CHORUS:
======

B            
Kailan mo ba matututunan?
Eb
kailan mo ba 'pagsisigawang 
G#m                     G
Di mo na 'pagkakailang tayo?
B
Kay rami nang pinagdaanan
Eb
Ano pa bang 'yong kailangan?
G#m                      B B-Bb
Nagsusumamo na sabihin mo




G#m         F#
Itikom ang bibig
E
Mata'y ibaling sa 'kin
G#m               F#        E
Pakinggan mo ang sasabihin ko

then...

   F#       G        G#m      G
e|----------------------------------------------------|
B|----------------------------------------------------|
G|-------4--------4--------4--------4-----------------| 3x
D|-----4--------5--------6--------5-------------------|
A|---4--------5--------6--------5---------------------|
E|-2--------3--------4--------3-----------------------|


CHORUS:
======

B            
Kailan mo ba matututunan?
Eb
kailan mo ba 'pagsisigawang 
G#m                     G
Di mo na 'pagkakailang tayo?
B
Kay rami nang pinagdaanan
Eb
Ano pa bang 'yong kailangan?
G#m                      B B-Bb
Nagsusumamo na sabihin mo

OUTRO:
======



Guitar 1:
e|-----------------------------------------------------------------------|
B|-----------------------------------------------------------------------|
G|-4-4-4-4-4-4-4-4-8-8-8-8-8-8-8-8-----------------4-4-4-3-3-3-3-3-------|
D|-4-4-4-4-4-4-4-4-8-8-8-8-8-8-8-8-6-6-6-6-6-6-6-6-4-4-4-4-4-4-4-4-------|
A|-2-2-2-2-2-2-2-2-6-6-6-6-6-6-6-6-6-6-6-6-6-6-6-6-2-2-2-1-1-1-1-1-------|
E|---------------------------------4-4-4-4-4-4-4-4-----------------------|
Guitar 2:
e|----------------------------------------------------------------------------------|
B|----------------------------------------------------------------------------------|
G|-11-11-9-9-8-8-9-9-11-11-9-9-8-8-9-9-11-11-9-9-8-8-9-9-11-11-9-9-8-8-9-9-11-11----| 
D|----------------------------------------------------------------------------------|
A|-/9--9-7-7-6-6-7-7--9--9-7-7-6-6-7-7--9--9-7-7-6-6-7-7--9--9-7-7-6-6-7-7--9--9----|
E|----------------------------------------------------------------------------------|



e|-----------------------------------------------------------------------|
B|-----------------------------------------------------------------------|
G|-4-4-4-4-4-4-4-4/8-8-8-8-8-8-8-8---------------------------------------|
D|-4-4-4-4-4-4-4-4/8-8-8-8-8-8-8-8-6-6-6-6-6-6-6-6/-9----9-9/11-8---8-9--|
A|-2-2-2-2-2-2-2-2/6-6-6-6-6-6-6-6-6-6-6-6-6-6-6-6/---11----------9------|
E|---------------------------------4-4-4-4-4-4-4-4/----------------------|

+------------------------------------------------+
|                12. Harapin                     |
|             Words & Music: Dilay               |
|        Add'l guitars: Cantada, Dilay           |
+------------------------------------------------+

NOTE - use powerchords for the whole song

INTRO: C


VERSE:
======
C          G     D         C  G  D    
Sa'n ka nakalingon, aking kaibigan
C          G        D    Em      C  G  D
Hanggang kailan mo ito balak na iwasan
C               G          D
Ang panaho'y tumatakbong palayo
C             G       D   
Tagilid, pag-asa ng 'yong pagkakataong
C    G     D    Em   C  G  D      
Lumaban sa agos at tumawid


CHORUS:
======
    C           G        C      G
O anong magagawa ng maling nag-aakala
     C             G
Pagmasdan mo ang mukha
         Em          D           C          G
Ng kung sinong pinagpala't lagi nang nagtatanong
     C             G
Sa kasama, laging may binubulong
C          G      Em            D     C
Handa ka bang harapin ang bukas na magaganap


VERSE:
======

C      G    D          C  G  D           
Bakit lagi kang nag-aalinlangan
C         G     D        Em   C  G  D    
Wala ka naman laging dapat patunayan
Em                D
Lilinaw din ang himpapawid
Em               G
May nakalaang daang matuwid
Em              D                  C
Makikita mo sa wakas kung anong dahilan


SOLO:
======
      Em     D       C       G       Em      D       C 

e|-----------------------------------------------------10--12-----|
B|--7-8------7----------------------------------------------------|
G|-------------7-----5/9----7------4/7-7----/9---11/12------------|
D|----------------------------9-----------------------------------|
A|----------------------------------------------------------------|
E|----------------------------------------------------------------|

      Em     D       C       G       Em      D       C 

e|---------------------------------------------------10----8--7--5--3--|
B|--7-8------7---------------------------------------------------------|
G|-------------7-----5/9----7------4/7-7----11h12----------------------|
D|----------------------------9-7--------------------------------------|
A|---------------------------------------------------------------------|
E|---------------------------------------------------------------------|


CHORUS:
======
    C           G        C      G
O anong magagawa ng maling nag-aakala
     C             G
Pagmasdan mo ang mukha
         Em          D           C          G
Ng kung sinong pinagpala't lagi nang nagtatanong
     C             G
Sa kasama, laging may binubulong
C          G      Em         D     
Handa ka bang tumayo at maninindigan


    C           G        C      G
O anong magagawa ng maling nag-aakala
     C             G
Pagmasdan mo ang mukha
         Em          D           C          G
Ng kung sinong pinagpala't lagi nang nagtatanong
     C             G
Sa kasama, laging may binubulong
C          G      Em            D        C
Handa ka bang harapin ang bukas na magaganap

C
Harapin ang bukas na magaganap 

End with C

~ END~



For questions/suggestions, sa YM/friendster nlng kayo mag message,
o kaya mag comment nlng...
Tnx ulet!

All Rights Reserved
Copyright 2007

comments
print report bad tab
9 comments total. Showing first comments.
0 reply
f1f2 wrote on November 20 2006, 06:13 am

grabe ang sipag mo! gaya ko :)

0 reply
random2280 wrote on November 20 2006, 07:01 am

madami po masyado mali and di pasok na mga chordS!! yun lang comment ko khit na masipag kayo basta di nyo inaaus gwa nyo wala pa din

0 reply
f1f2 wrote on November 20 2006, 07:08 am

hahaha sa totoo lang ang narinig ko palang na kanta mula sa cdng ito eh "bitiw"... hmmmmm tinatamad na akong mag-tab kasi :)

I want to post or [tab]
guest
You may want to rate the tab now too:
select rating
Please do not post tabs as comments. Select "correction" instead!