Oops, an error
Loading. Please wait.

I Turn My Camera On Bass Tab

ver3
ver3

Whole song

More versions @911Tabs.com
4,952 views 3 this week
1 commentread comment
1 2 3 4 5
excellent!
x 5
Autoscroll
+/-
esc
set tempo
stop
Contributor
Difficulty
novice
WARNING: You are trying to view
                                    content from Ultimate-Guitar.com
                                    in an unauthorized application,
                                    which is prohibited.

                                    Please use an official Ultimate
                                    Guitar Tabs application for iPhone,
                                    iPad or Android to access legitimate
                                    chords, guitar, bass, and drum tabs
                                    from Ultimate-Guitar.com database.

                                    Type "ultimate guitar tabs" in Apple
                                    App Store's or Android Market's
                                    search to find the application.
Standard Tuning.

~ means slide

G|----------------------------------------------------------|
D|-7--7--7--7--7--7--7--9--10--10--10--10--10--10--10--10-9-|   2X
A|----------------------------------------------------------|
E|----------------------------------------------------------|

G|----------------------------------------------------------|
D|-7--7--7--7--7--7--7--7--10--10--10--10--10--10--10--10---|   2X
A|----------------------------------------------------------|
E|----------------------------------------------------------|

G|----------------------------------------------------------|
D|-7--7--7--7--7--7--7-----10--10--10------10--10--10-------|   1X
A|----------------------7--------------10--------------10---|
E|----------------------------------------------------------|

G|----------------------------------------------------------|
D|-7--7--7-----7--7--7--7~~10--10--10------10--10--10--9----|   1X
A|----------7----------7---------------10-------------------|
E|----------------------------------------------------------|

G|----------------------------------------------------------|
D|-7--7--7--7--7--7--7-----10--10--10------10--10--10-------|   1X
A|----------------------7------------------------------10---|
E|----------------------------------------------------------|

G|----------------------------------------------------------|
D|-7--7--7--7--7--7--7--9--10--10--10--10--10--10--10--10---|   1X
A|----------------------------------------------------------|
E|----------------------------------------------------------|


G|----------------------------------------------------------|
D|-7--7--7--7--7--7--7--9--10--10--10--10--10--10-----------|   1X
A|----------------------------------------------------------|
E|-------------------------------------------------8-8-7-7--|

G|----------------------------------------------------------|
D|----7-----7-----7-----7-----10-----10-----10---10-10-9-9--|   1X
A|----------------------------------------------------------|
E|-5-----5-----5-----5-----8------8------8------------------|

G|--------------------------------------------------------------|
D|-7--7--7--7--7--7--7--7--10--10--10--10--10--10--10-10-9-9----|   1X
A|--------------------------------------------------------------|
E|--------------------------------------------------------------|

G|----------------------------------------------------------|
D|-7--7--7--7--7--7--7--7--9--10--10--10--10--10--10--10-9--|   1X
A|----------------------------------------------------------|
E|----------------------------------------------------------|

G|----------------------------------------------------------|
D|-7--7--7--7--7--7--7--7-----------------------------------|   1X
A|----------------------------------------------------------|
E|-------------------------8--8--8--8--8--8--8--7-----------|

G|----------------------------------------------------------|
D|-7--7--7--7--7--7--7--9--10--10--10--10--10--10-----------|   1X
A|----------------------------------------------------------|
E|-------------------------------------------------8-8-7-7--|

G|----------------------------------------------------------|
D|----------------------7---9--10--10--10--10--10-----------|   1X
A|------------------------7---------------------------------|
E|-5--5--5--5--5--5--5-----------------------------8-8-7-7--|

G|----------------------------------------------------------|
D|----7--7--7--7--7--7--7--10--10--10--10--10--10-----------|   1X
A|----------------------------------------------------------|
E|-5-----------------------------------------------8-8-7-7--|

G|----------------------------------------------------------|
D|-7--7--7--7--7--7--7--7--10--10--10--10--10--10--10--10---|   1X
A|----------------------------------------------------------|
E|----------------------------------------------------------|

G|----------------------------------------------------------|
D|-7--7--7--7--7--7--7--7--10--10--10--10--10--10-----------|   1X
A|----------------------------------------------------------|
E|-------------------------------------------------8--7-----|

G|----------------------------------------------------------|
D|--------------------------------------------10---9--------|   1X
A|----------------------------------------------------------|
E|-5--5--5--5--5--5--5-0-5-7-8--8--8--8--8--8----8---7------|

G|----------------------------------------------------------|
D|-7--7--7--7-----7--------------10-----10----10------------|   1X
A|----------------------------------------------------------|
E|-------------5-----5-0-5-7--8------8-----8-----8-8-7-7----|

G|----------------------------------------------------------|
D|-7--7--7--7--7--7--7--9--10--10--10--10--10--10--10--10---|   2X
A|----------------------------------------------------------|
E|----------------------------------------------------------|

G|----------------------------------------------------------|
D|-7--7--7--7--7--7-----7-----7-----7--7--7-----7-----------|   1X
A|----------------------------------------------------------|
E|-------------------5-----5-----5-----------5--------------|

I think that's pretty close to it. This is my first tab, so let me know what you think!
1 comment total.
+1 reply
jonny awesome wrote on April 5 2008, 06:00 pm

Quick Correction: The fifth line there should not exist. Just skip from the fourth to the sixth.

Also, the third line should look like
G|----------------------------------------------------------|
D|-7--7--7-----7--7--7--7--10--10--10------10--10--10-------| 1X
A|----------7--------------------------10--------------10---|
E|----------------------------------------------------------|

rather than
G|----------------------------------------------------------|
D|-7--7--7--7--7--7--7-----10--10--10------10--10--10-------| 1X
A|----------------------7--------------10--------------10---|
E|----------------------------------------------------------|

I want to post or [tab]
guest
You may want to rate the tab now too:
select rating
Please do not post tabs as comments. Select "correction" instead!