Oops, an error
Loading. Please wait.

Mayonaka Shounen Totsugeki Dan Tab

ver1
ver1

Whole song

Interactive

More versions @911Tabs.com
2,385 views 4 this week
no commentswrite comment
1 2 3 4 5
accurate
x 3
add to favorites launch autoscroll
font size
0
reset
Autoscroll
+/-
esc
set tempo
stop
WARNING: You are trying to view
                                    content from Ultimate-Guitar.com
                                    in an unauthorized application,
                                    which is prohibited.

                                    Please use an official Ultimate
                                    Guitar Tabs application for iPhone,
                                    iPad or Android to access legitimate
                                    chords, guitar, bass, and drum tabs
                                    from Ultimate-Guitar.com database.

                                    Type "ultimate guitar tabs" in Apple
                                    App Store's or Android Market's
                                    search to find the application.
"MAYONAKA SHOUNEN TOTSUGEKI DAN" BY STANCE PUNKS (from Battle Royale 2: Requiem)
Official Stance Punks Site: http://www.dynamord.com/stance/punks/
Tabbed by jimOsphEre (jimmature@hotmail.com, http://www.jimmature.tk)

This movie is so fresh, i had to tab out the credit song. =) It's not too hard,
just listen to the songs a couple times.  This is my first tab, enjoy!

Legend:
e = eighth note
q = quarter note
h = half note
f = full note
er= rest (eighth)
qr= rest (quarter)

Song Sequence:
INTRO X2 - Guitar 1
VERSE X2 - Both
CHORUS - Both
VERSE - Both
VERSE INTRO 1 - Guitar 1
VERSE - Both
CHORUS - Both
VERSE - Guitar 2
VERSE INTRO 2 - Guitar 2
BRIDGE - Both
VERSE - on second half, Guitar 1 only
LALA SOLO - Guitar 1
OUTRO - Both


Guitar 1
INTRO & VERSE

     q    q     q     q        q    q     e  e   e  er
E||-------------------------|--------------------------|----------------------|--------------------------|
B||-------------11----------|-------------9------------|------------7---------|-------------11-----------|
G||-------------------11----|----------------10--------|-----------------8----|-----------------9--------|
D||-------11----------------|--------------------11----|-------8--------------|-------11-----------11----|
A||--9----------------------|-------11-----------------|--6-------------------|--9-----------------------|
E||-------------------------|--9-----------------------|----------------------|--------------------------|

                                                                             (3rd string h)
                                                                                   f         h
E||----------------------|---------------------------|--------------------------|--9-------------------|
B||----------------------|-------------11------------|--------------12----------|--9-------------------|
G||------------8---------|-----------------11--------|--------------------13----|--10--------10--------|
D||-----------------9----|-------11------------11----|--------13----------------|--11------------------|
A||-------9--------------|--9------------------------|--11----------------------|--11------------------|
E||--7-------------------|---------------------------|--------------------------|--9-------------------|



E||-------------------------|--------------------------|----------------------|--------------------------|
B||-------------11----------|-------------9------------|------------7---------|-------------11-----------|
G||-------------------11----|----------------10--------|-----------------8----|-----------------9--------|
D||-------11----------------|--------------------11----|-------8--------------|-------11-----------11----|
A||--9----------------------|-------11-----------------|--6-------------------|--9-----------------------|
E||-------------------------|--9-----------------------|----------------------|--------------------------|


                                                                                   f
E||----------------------|---------------------------|--------------------------|--9-----------------||
B||----------------------|-------------11------------|--------------12----------|--9-----------------||
G||------------8---------|-----------------11--------|--------------------13----|--10----------------||
D||-----------------9----|-------11------------11----|--------13----------------|--11----------------||
A||-------9--------------|--9------------------------|--11----------------------|--11----------------||
E||--7-------------------|---------------------------|--------------------------|--9-----------------||



Guitar 2
VERSE

     f                    f                    f                   f
E||--9-----------------|--9-----------------|--6----------------|--9-----------------|
B||--11----------------|--9-----------------|--7----------------|--11----------------|
G||--11----------------|--10----------------|--8----------------|--9-----------------|
D||--11----------------|--11----------------|--8----------------|--11----------------|
A||--9-----------------|--11----------------|--6----------------|--9-----------------|
E||--9-----------------|--9-----------------|-------------------|--9-----------------|



E||--7----------------|--9-----------------|--11----------------|--9-----------------|
B||--7----------------|--11----------------|--12----------------|--9-----------------|
G||--8----------------|--11----------------|--13----------------|--10----------------|
D||--9----------------|--11----------------|--13----------------|--11----------------|
A||--9----------------|--9-----------------|--11----------------|--11----------------|
E||--7----------------|--9-----------------|--------------------|--9-----------------|



E||--9-----------------|--9-----------------|--6----------------|--9-----------------|
B||--11----------------|--9-----------------|--7----------------|--11----------------|
G||--11----------------|--10----------------|--8----------------|--9-----------------|
D||--11----------------|--11----------------|--8----------------|--11----------------|
A||--9-----------------|--11----------------|--6----------------|--9-----------------|
E||--9-----------------|--9-----------------|-------------------|--9-----------------|


                                              h         h
E||--7----------------|--9-----------------|--11--------9---------|--9-----------------||
B||--7----------------|--11----------------|--12--------9---------|--11----------------||
G||--8----------------|--11----------------|--13--------10--------|--11----------------||
D||--9----------------|--11----------------|--13--------11--------|--11----------------||
A||--9----------------|--9-----------------|--11--------11--------|--9-----------------||
E||--7----------------|--9-----------------|------------9---------|--9-----------------||



CHORUS

     h        h           q     h                h        h           q     h
E||--6--------6--------|--9-----9-------------|--7--------7--------|--9-----9-------------|
B||--7--------7--------|--9-----9-------------|--7--------7--------|--9-----9-------------|
G||--8--------8--------|--10----10------------|--8--------8--------|--10----10------------|
D||--8--------8--------|--11----11------------|--9--------9--------|--11----11------------|
A||--6--------6--------|--11----11------------|--9--------9--------|--11----11------------|
E||--------------------|--9-----9-------------|--7--------7--------|--9-----9-------------|


     h        h           q     h                q    q    q    q       f
E||--6--------6--------|--9-----9-------------|--7----7----7----7----|--9-----------------|
B||--7--------7--------|--9-----9-------------|--7----7----7----7----|--9-----------------|
G||--8--------8--------|--10----10------------|--8----8----8----8----|--10----------------|
D||--8--------8--------|--11----11------------|--9----9----9----9----|--11----------------|
A||--6--------6--------|--11----11------------|--9----9----9----9----|--11----------------|
E||--------------------|--9-----9-------------|--7----7----7----7----|--9-----------------|



VERSE INTRO 1 (Guitar 1 does this on Guitar 2's last chord instead of his own chord)

     q     q     q     q
E||--------------------------|-------------------------||
B||--------------11----------|-------------11----------||
G||--11----------------11----|-------11----------11----||
D||--------11----------------|-------------------------||
A||--------------------------|--9----------------------||
E||--------------------------|-------------------------||



VERSE INTRO 2

     q     q     q     q
E||--9-----9-----9-----9-----|--9-----9-----9-----9----||
B||--11----11----11----11----|--11----11----11----11---||
G||--11----11----11----11----|--11----11----11----11---||
D||--11----11----11----11----|--11----11----11----11---||
A||--9-----9-----9-----9-----|--9-----9-----9-----9----||
E||--9-----9-----9-----------|--9-----9-----9-----9----||



BRIDGE

     q     q     q     q        q     q     q     q
E||--------------------------|--------------------------|-------------------------|-----------------------|
B||--------------------------|--------------------------|-------------------------|-----------------------|
G||--------------------------|--------------------------|-------------------------|-----------------------|
D||--11----11----11----11----|--11----11----11----11----|--13----13----13----13---|--13----13----13----13-|
A||--11----11----11----11----|--11----11----11----11----|--13----13----13----13---|--13----13----13----13-|
E||--9-----9-----9-----9-----|--9-----9-----9-----9-----|--11----11----11----11---|--11----11----11----11-|



E||----------------------|----------------------|--------------------------|--------------------------|
B||----------------------|----------------------|--------------------------|--------------------------|
G||----------------------|----------------------|--------------------------|--------------------------|
D||--9----9----9----9----|--9----9----9----9----|--11----11----11----11----|--11----11----11----11----|
A||--9----9----9----9----|--9----9----9----9----|--11----11----11----11----|--11----11----11----11----|
E||--7----7----7----7----|--7----7----7----7----|--9-----9-----9-----9-----|--9-----9-----9-----9-----|



E||--------------------------|--------------------------|----------------------|----------------------|
B||--------------------------|--------------------------|----------------------|----------------------|
G||--------------------------|--------------------------|----------------------|----------------------|
D||--13----13----13----13----|--13----13----13----13----|--8----8----8----8----|--8----8----8----8----|
A||--13----13----13----13----|--13----13----13----13----|--8----8----8----8----|--8----8----8----8----|
E||--11----11----11----11----|--11----11----11----11----|--6----6----6----6----|--6----6----6----6----|



E||----------------------|----------------------|--------------------------|--------------------------|
B||----------------------|----------------------|--------------------------|--------------------------|
G||----------------------|----------------------|--------------------------|--------------------------|
D||--9----9----9----9----|--9----9----9----9----|--11----11----11----11----|--11----11----11----11----|
A||--9----9----9----9----|--9----9----9----9----|--11----11----11----11----|--11----11----11----11----|
E||--7----7----7----7----|--7----7----7----7----|--9-----9-----9-----9-----|--9-----9-----9-----9-----|


                                q     q     hr
E||--------------------------|----------------------||
B||--------------------------|----------------------||
G||--------------------------|----------------------||
D||--11----11----11----11----|--11----11------------||
A||--11----11----11----11----|--11----11------------||
E||--9-----9-----9-----9-----|--9-----9-------------||


LALA SOLO (slow)
     e  e   e   e   h            e  e   e   e   h            e  e  e  e  h           e  e   e  e  h
E||-----------------9---------|-----------------9---------|--------------6--------|---------------9---|
B||-----------------11--------|-----------------9---------|--------------7--------|---------------11--|
G||---------11------11--------|-----------------10--------|--------8-----8--------|---------9-----9---|
D||-----11------11--11--------|---------11------11--------|-----8-----8--8--------|-----11-----8--11--|
A||--9--------------9---------|-----11------11--11--------|--6-----------6--------|--9------------9---|
E||---------------------------|--9--------------9---------|-----------------------|-------------------|


     e  e  e  e  h           e  e  e   e  e  e  e  e     e  e   e   e   e  e  e  e     f
E||--7--------------------|---------------------------|---------9-------------------|-----------------|
B||--7--------------------|---------------------7--4--|---------9-------------------|-----------------|
G||--8-----------8--------|------------------3--------|---------10------------8-----|--11-------------|
D||--9--------9-----------|-----8--11--8--1-----------|---------11------------9-----|--11-------------|
A||--9-----9--------------|--9------------------------|-----11--11--11-----9--9--9--|--9--------------|
E||--7--7-----------------|---------------------------|--9------9---9---7-----7--7--|--9--------------|



E||--9-----------------|--9-----------------|--6----------------|--9-----------------|
B||--11----------------|--9-----------------|--7----------------|--11----------------|
G||--11----------------|--10----------------|--8----------------|--9-----------------|
D||--11----------------|--11----------------|--8----------------|--11----------------|
A||--9-----------------|--11----------------|--6----------------|--9-----------------|
E||--9-----------------|--9-----------------|-------------------|--9-----------------|


                         h         h                                 f
E||--7----------------|--9---------6--------|--9---------7--------|--9-----------------|
B||--7----------------|--11--------7--------|--9---------7--------|--11----------------|
G||--8----------------|--11--------8--------|--10--------8--------|--11----------------|
D||--9----------------|--11--------8--------|--11--------9--------|--11----------------|
A||--9----------------|--9---------6--------|--11--------9--------|--9-----------------|
E||--7----------------|--9------------------|--9---------7--------|--9-----------------|


     h         h           f                    h         h           f
E||--9---------7--------|--9-----------------|--9---------7--------|--------------------||
B||--9---------7--------|--11----------------|--9---------7--------|--------------------||
G||--10--------8--------|--11----------------|--10--------8--------|--11----------------||
D||--11--------9--------|--11----------------|--11--------9--------|--11----------------||
A||--11--------9--------|--9-----------------|--11--------9--------|--9-----------------||
E||--9---------7--------|--9-----------------|--9---------7--------|--9-----------------||



OUTRO


     e e e e e e e e e e e e e e e e
E||----------------------------------|----------------------------------|
B||----------------------------------|----------------------------------|
G||----------------------------------|----------------------------------|
D||--6-6-6-6-6-6-6-6-6-6-6-6-6-6-6-6-|--6-6-6-6-6-6-6-6-6-6-6-6-6-6-6-6-|
A||--6-6-6-6-6-6-6-6-6-6-6-6-6-6-6-6-|--6-6-6-6-6-6-6-6-6-6-6-6-6-6-6-6-|
E||--4-4-4-4-4-4-4-4-4-4-4-4-4-4-4-4-|--4-4-4-4-4-4-4-4-4-4-4-4-4-4-4-4-|



E||----------------------------------|--------------------------------------------------|
B||----------------------------------|--------------------------------------------------|
G||------------------8-8-8-8-8-8-8-8-|--10-10-10-10-10-10-10-10-------------------------|
D||--6-6-6-6-6-6-6-6-8-8-8-8-8-8-8-8-|--10-10-10-10-10-10-10-10-10-10-10-10-10-10-10-10-|
A||--6-6-6-6-6-6-6-6-6-6-6-6-6-6-6-6-|--8--8--8--8--8--8--8--8--10-10-10-10-10-10-10-10-|
E||--4-4-4-4-4-4-4-4-----------------|--------------------------8--8--8--8--8--8--8--8--|



E||------------------------------------------|----------------------------------|
B||------------------------------------------|----------------------------------|
G||--6-6-6-6-6-6-6-6-------------------------|------------------8-8-8-8-8-8-8-8-|
D||--6-6-6-6-6-6-6-6-10-10-10-10-10-10-10-10-|--8-8-8-8-8-8-8-8-8-8-8-8-8-8-8-8-|
A||--4-4-4-4-4-4-4-4-10-10-10-10-10-10-10-10-|--8-8-8-8-8-8-8-8-6-6-6-6-6-6-6-6-|
E||------------------8--8--8--8--8--8--8--8--|--6-6-6-6-6-6-6-6-----------------|



E||----------------------------------|--------------------------------------------------|
B||----------------------------------|--------------------------------------------------|
G||------------------8-8-8-8-8-8-8-8-|--10-10-10-10-10-10-10-10-------------------------|
D||--6-6-6-6-6-6-6-6-8-8-8-8-8-8-8-8-|--10-10-10-10-10-10-10-10-10-10-10-10-10-10-10-10-|
A||--6-6-6-6-6-6-6-6-6-6-6-6-6-6-6-6-|--8--8--8--8--8--8--8--8--10-10-10-10-10-10-10-10-|
E||--4-4-4-4-4-4-4-4-----------------|--------------------------8--8--8--8--8--8--8--8--|



E||------------------------------------------|----------------------------------|
B||------------------------------------------|----------------------------------|
G||--6-6-6-6-6-6-6-6-------------------------|----------8-8-8-8---------9-9-9-9-|
D||--6-6-6-6-6-6-6-6-10-10-10-10-10-10-10-10-|--8-8-8-8-8-8-8-8-6-6-6-6-9-9-9-9-|
A||--4-4-4-4-4-4-4-4-10-10-10-10-10-10-10-10-|--8-8-8-8-6-6-6-6-6-6-6-6-7-7-7-7-|
E||------------------8--8--8--8--8--8--8--8--|--6-6-6-6---------4-4-4-4---------|



E||----------------------------------|--------------------------------------------------|
B||----------------------------------|--------------------------------------------------|
G||------------------9-9-9-9-9-9-9-9-|--11-11-11-11-11-11-11-11-------------------------|
D||--7-7-7-7-7-7-7-7-9-9-9-9-9-9-9-9-|--11-11-11-11-11-11-11-11-11-11-11-11-11-11-11-11-|
A||--7-7-7-7-7-7-7-7-7-7-7-7-7-7-7-7-|--9--9--9--9--9--9--9--9--11-11-11-11-11-11-11-11-|
E||--5-5-5-5-5-5-5-5-----------------|--------------------------9--9--9--9--9--9--9--9--|



E||------------------------------------------|----------------------------------|
B||------------------------------------------|----------------------------------|
G||--7-7-7-7-7-7-7-7-------------------------|------------------9-9-9-9-9-9-9-9-|
D||--7-7-7-7-7-7-7-7-11-11-11-11-11-11-11-11-|--9-9-9-9-9-9-9-9-9-9-9-9-9-9-9-9-|
A||--5-5-5-5-5-5-5-5-11-11-11-11-11-11-11-11-|--9-9-9-9-9-9-9-9-7-7-7-7-7-7-7-7-|
E||------------------9--9--9--9--9--9--9--9--|--7-7-7-7-7-7-7-7-----------------|



E||----------------------------------|--------------------------------------------------|
B||----------------------------------|--------------------------------------------------|
G||------------------9-9-9-9-9-9-9-9-|--11-11-11-11-11-11-11-11-------------------------|
D||--7-7-7-7-7-7-7-7-9-9-9-9-9-9-9-9-|--11-11-11-11-11-11-11-11-11-11-11-11-11-11-11-11-|
A||--7-7-7-7-7-7-7-7-7-7-7-7-7-7-7-7-|--9--9--9--9--9--9--9--9--11-11-11-11-11-11-11-11-|
E||--5-5-5-5-5-5-5-5-----------------|--------------------------9--9--9--9--9--9--9--9--|



E||------------------------------------------|----------------------------------|
B||------------------------------------------|----------------------------------|
G||--7-7-7-7-7-7-7-7-------------------------|----------9-9-9-9-----------------|
D||--7-7-7-7-7-7-7-7-11-11-11-11-11-11-11-11-|--9-9-9-9-9-9-9-9-7-7-7-7-7-7-7-7-|
A||--5-5-5-5-5-5-5-5-11-11-11-11-11-11-11-11-|--9-9-9-9-7-7-7-7-7-7-7-7-7-7-7-7-|
E||------------------9--9--9--9--9--9--9--9--|--7-7-7-7---------5-5-5-5-5-5-5-5-|



E||----------------------------------|----------------------------------|
B||----------------------------------|----------------------------------|
G||----------------------------------|--9-9-9-9-9-9-9-9-9-9-9-9-9-9-9-9-|
D||--7-7-7-7-7-7-7-7-7-7-7-7-7-7-7-7-|--9-9-9-9-9-9-9-9-9-9-9-9-9-9-9-9-|
A||--7-7-7-7-7-7-7-7-7-7-7-7-7-7-7-7-|--7-7-7-7-7-7-7-7-7-7-7-7-7-7-7-7-|
E||--5-5-5-5-5-5-5-5-5-5-5-5-5-5-5-5-|----------------------------------|



E||--------------------------------------------------|--------------------------------------------------|
B||--------------------------------------------------|--------------------------------------------------|
G||--11-11-11-11-11-11-11-11-11-11-11-11-11-11-11-11-|--------------------------------------------------|
D||--11-11-11-11-11-11-11-11-11-11-11-11-11-11-11-11-|--11-11-11-11-11-11-11-11-11-11-11-11-11-11-11-11-|
A||--9--9--9--9--9--9--9--9--9--9--9--9--9--9--9--9--|--11-11-11-11-11-11-11-11-11-11-11-11-11-11-11-11-|
E||--------------------------------------------------|--9--9--9--9--9--9--9--9--9--9--9--9--9--9--9--9--|



E||----------------------------------|--------------------------------------------------|
B||----------------------------------|--------------------------------------------------|
G||--7-7-7-7-7-7-7-7-7-7-7-7-7-7-7-7-|--------------------------11-11-11-11-11-11-11-11-|
D||--7-7-7-7-7-7-7-7-7-7-7-7-7-7-7-7-|--11-11-11-11-11-11-11-11-11-11-11-11-11-11-11-11-|
A||--5-5-5-5-5-5-5-5-5-5-5-5-5-5-5-5-|--11-11-11-11-11-11-11-11-9--9--9--9--9--9--9--9--|
E||----------------------------------|--9--9--9--9--9--9--9--9--------------------------|



E||----------------------------------|----------------------------------|
B||----------------------------------|----------------------------------|
G||--9-9-9-9-9-9-9-9-7-7-7-7-7-7-7-7-|--6-6-6-6-6-6-6-6-6-6-6-6-6-6-6-6-|
D||--9-9-9-9-9-9-9-9-7-7-7-7-7-7-7-7-|--6-6-6-6-6-6-6-6-6-6-6-6-6-6-6-6-|
A||--7-7-7-7-7-7-7-7-5-5-5-5-5-5-5-5-|--4-4-4-4-4-4-4-4-4-4-4-4-4-4-4-4-|
E||----------------------------------|----------------------------------|



E||----------------------------------|----------------------------------|
B||----------------------------------|----------------------------------|
G||--6-6-6-6-6-6-6-6-6-6-6-6-6-6-6-6-|----------------------------------|
D||--6-6-6-6-6-6-6-6-6-6-6-6-6-6-6-6-|--9-9-9-9-9-9-9-9-9-9-9-9-9-9-9-9-|
A||--4-4-4-4-4-4-4-4-4-4-4-4-4-4-4-4-|--9-9-9-9-9-9-9-9-9-9-9-9-9-9-9-9-|
E||----------------------------------|--7-7-7-7-7-7-7-7-7-7-7-7-7-7-7-7-|



E||--------------------------------------------------|------------------x-x-x-x-x-x-x-x-|
B||--------------------------------------------------|------------------x-x-x-x-x-x-x-x-|
G||--11-11-11-11-11-11-11-11-11-11-11-11-11-11-11-11-|--6-6-6-6-6-6-6-6-x-x-x-x-x-x-x-x-|
D||--11-11-11-11-11-11-11-11-11-11-11-11-11-11-11-11-|--6-6-6-6-6-6-6-6-x-x-x-x-x-x-x-x-|
A||--9--9--9--9--9--9--9--9--9--9--9--9--9--9--9--9--|--4-4-4-4-4-4-4-4-x-x-x-x-x-x-x-x-|
E||--------------------------------------------------|------------------x-x-x-x-x-x-x-x-|


                                        e e e e e e e e h
E||----------------------------------|----------------------------|
B||----------------------------------|----------------------------|
G||--7-7-7-7-7-7-7-7-7-7-7-7-7-7-7-7-|--6-6-6-6-6-6-6-6-11--------|
D||--7-7-7-7-7-7-7-7-7-7-7-7-7-7-7-7-|--6-6-6-6-6-6-6-6-11--------|
A||--5-5-5-5-5-5-5-5-5-5-5-5-5-5-5-5-|--4-4-4-4-4-4-4-4-9---------|
E||----------------------------------|----------------------------|


     h        q    q       f                   f
E||---------------------|-------------------|-------------------||
B||---------------------|-------------------|-------------------||
G||--9--------9/---6----|--7----------------|-------------------||
D||--9--------9/---6----|--7----------------|--7----------------||
A||--7--------7/---4----|--5----------------|--7----------------||
E||---------------------|-------------------|--5----------------||
comments
We did not receive enough feedback on this tab! Please rate:
print report bad tab
1 2 3 4 5
I want to post or [tab]
guest
You may want to rate the tab now too:
select rating
Please do not post tabs as comments. Select "correction" instead!