Oops, an error
Loading. Please wait.

Cavatina Tab

ver1
ver1

Whole song

More versions @911Tabs.com
49,313 views 261 this week
2 commentsread comments
1 2 3 4 5
excellent!
x 4
add to favorites launch autoscroll
font size
0
reset
Autoscroll
+/-
esc
set tempo
stop
WARNING: You are trying to view
                                    content from Ultimate-Guitar.com
                                    in an unauthorized application,
                                    which is prohibited.

                                    Please use an official Ultimate
                                    Guitar Tabs application for iPhone,
                                    iPad or Android to access legitimate
                                    chords, guitar, bass, and drum tabs
                                    from Ultimate-Guitar.com database.

                                    Type "ultimate guitar tabs" in Apple
                                    App Store's or Android Market's
                                    search to find the application.
#----------------------------------PLEASE NOTE---------------------------------#
#This file is the author's own work and represents their interpretation of the #
#song. You may only use this file for private study, scholarship, or research. #
#------------------------------------------------------------------------------#
#
[two versions, quite similar]

From: Mike Bremford 


                        Cavatina - Stanley Myers
                   Theme music from 'The Deer Hunter'
         (Solo version for guitar arranged by John Williams.)

              Tabbed by Dan Evison, typed by Mike Bremford


Time is 3/4. Roman Numerals indicate Positions.

                                         CVI
E+--7----------------------------------+--7----------------------------------+
B+--------------------5----------------+--------------------9----------------+
G+--------------4-----------4----------+--------------8-----------8----------+
D+--------6-----------------------6----+--------6-----------------------6----+
A+-------------------------------------+--6----------------------------------+
E+--0----------------------------------+-------------------------------------+

   CIX                                    CIX
E+--------9----------------------------+-------------------------------------+
B+-10-12--------------10---------------+-------------------10----------------+
G+--------------9-----------9----------+--------------9-----------9----------+
D+-------11----------------------11----+-------11----------------------11----+
A+-------------------------------------+--9----------------------------------+
E+--9----------------------------------+-------------------------------------+

   CVII                                   CVII
E+-----7--9----------------------------+--------------------------------7----+
B+-10-----------------10---------------+----------------------------------10-+
G+--------------9-----------9----------+--------------------8----------------+
D+--------7-----------------------7----+--------------7-----------7----------+
A+-------------------------------------+--------9-----------------------9----+
E+--7----------------------------------+--7----------------------------------+


E+--7----------------------------------+--------------------------------5p-4-+
B+--------------------9----------------+-------------------------------------+
G+--------------8-----------8----------+--------------------3----------------+
D+--------9-----------------------9----+--------------4-----------4----------+
A+-------------------------------------+--------6----------------------------+
E+--0----------------------------------+--0----------------------------------+

                                          CII
E+--4----------------------------------+--2-------------------------------0--+
B+--------------------2----------------+--------------------2----------------+
G+--------------2-----------2----------+--------------2-----------2----------+
D+--------2-----------------------2----+--------4-----------------------4----+
A+--0----------------------------------+--5----------------------------------+
E+-------------------------------------+-------------------------------------+


E+--2----------------------------------+--0----------------------------------+
B+--------------------0----------------+--------------------0----------------+
G+--------------0-----------0----------+--------------0-----------0----------+
D+--------0-----------------------0----+--------2-----------------------2----+
A+-------------------------------------+--3----------------------------------+
E+--3----------------------------------+-------------------------------------+

                                          CII
E+--0----------------------------------+--------------2----------------------+
B+--------------------0----------------+--------------------------4----------+
G+--------------2-----------2----------+--------------2-----4-----2----------+
D+--------4-----------------------4----+--------4-----------------------4----+
A+--2----------------------------------+--2----------------------------------+
E+-------------------------------------+-------------------------------------+


E+--0----------------------------------+--0-----------0-----4-----7----11----+
B+--------------------------------0----+--------0----------------------------+
G+--2-----------1-----------1----------+-------------------------------------+
D+--------4-----------2----------------+-------------------------------------+
A+-------------------------------------+-------------------------------------+
E+--0----------------------------------+-------------------------------------+

   CIX                                   CIX
E+-12----------------------------------+-12----------------------------11p-9-+
B+--------------------9----------------+--------------------9----------------+
G+--------------9-----------9----------+--------------9-----------9----------+
D+--------9-----------------------9----+--------9-----------------------9----+
A+--9----------------------------------+--9----------------------------------+
E+-------------------------------------+-------------------------------------+

   CIX                                   CVII
E+--9----11h12-11----------------------+--7-----------------------9-----7----+
B+-------------------11----------------+--------------------9----------------+
G+-------------------------11----------+--------------8----------------------+
D+--------------------------------9----+--------9----------------------------+
A+-------------------------------------+-------------------------------------+
E+--0----------------------------------+--7----------------------------------+

   CII                                   CVII
E+--5----------------------------------+--------------7----------------------+
B+--------------------2----------------+-10-----------------------7----------+
G+--------------2-----------2----------+--------------------8----------------+
D+--------2-----------------------2----+--------------7-----------7----------+
A+-------------------------------------+--------9------------------------9---+
E+--2----------------------------------+--7----------------------------------+


E+-------------------------------------+--------------------------0-----2----+
B+--9----------------------------------+--------------------3----------------+
G+--------------------8----------------+--------------4----------------------+
D+--------------9-----------9----------+--------2----------------------------+
A+--------7-----------------------7----+-------------------------------------+
E+--0----------------------------------+--0----------------------------------+

Coda                                     CV
E+--4----------------------------------+--5----------------------------------+
B+--------------------2----------------+--------------------7----------------+
G+--------------2-----------2----------+--------------5-----------5----------+
D+--------2-----------------------2----+--------7-----------------------7----+
A+--0----------------------------------+--5----------------------------------+
E+-------------------------------------+-------------------------------------+

   CVI
E+--6----------------------------------+--7----------------------------------+
B+--------------------7----------------+--------0-----------7-----------0----+
G+--------------6-----------6----------+--------------8-----------8----------+
D+--------8-----------------------8----+-------------------------------------+
A+--7----------------------------------+--6----------------------------------+
E+-------------------------------------+-------------------------------------+


E+--7----------------------------------+-12----------------------------------+
B+--------0-----------7-----------0----+--------------0-----------0----------+
G+--------------7-----------7----------+--------0-----------9-----------0----+
D+--0----------------------------------+-------------------------------------+
A+-------------------------------------+-------------------------------------+
E+-------------------------------------+--8----------------------------------+


E+-12-----8-----8----10----10-----7----+--7-----8-----8-----------7-----8----+
B+-------------------------------------+-------------------------------------+
G+-------------------------------------+-------------------------------------+
D+-10----------------------------------+-------------------------------------+
A+--9----------------------------------+-------------------------------------+
E+--7----------------------------------+-------------------------------------+


E+-12----------------------------------+-------------------------------------+
B+-------------------------------------+-------------------------------------+
G+--9-----5-----5-----7-----7-----4----+--4-----5----------------------------+
D+-------------------------------------+--------------7-----4-----2----------+
A+-------------------------------------+--------------------------------3----+
E+-------------------------------------+-------------------------------------+


E+-------------------------------------+--------------------2----------------+
B+-------------------------------------+--------------2-----------2----------+
G+-------------------------------------+-------------------------------------+
D+-------------------------------------+--------2-----------------------2----+
A+--2----------------------------------+--1----------------------------------+
E+--------5-----3-----2-----3-----5----+-------------------------------------+

   CII                                   CIII
E+--------------------2----------------+-------------------------------------+
B+--------------3----------------------+--------------------3----------------+
G+-------------------------------------+--------------3-----------3----------+
D+--------4------------------2----4----+--------3-----------------------3----+
A+--2----------------------------------+5------------------------------------+
E+--------------------2----------------+--5----------------------------------+

   CI                                    CIII
E+-------------------------------------+--------------------3----------------+
B+-------------------------------------+--------------4-----------4----------+
G+-------------------------------------+--------3-----------------------3----+
D+--3-----------1------------1----3----+--5----------------------------------+
A+--------1-----------1----------------+--4----------------------------------+
E+--2-----------2----------------------+-------------------------------------+

   CVI
E+-------------------------------------+--------------------0----------------+
B+-------------------------------------+--------------0-----------0----------+
G+-------------------------------------+-------------------------------------+
D+--8-----------6-----------6-----8----+--9-----------------------------2----+
A+--------6-----------6----------------+--------7----------------------------+
E+--7----------------------------------+--4----------------------------------+

   CII
E+-------------------------------------+-------------------------------------+
B+--------------------5-------------2--+--0----------------------------------+
G+--------------4-----------4----------+--------------------2----------------+
D+--------2-----------------------2----+--------------1-----------1----------+
A+-------------------------------------+--------2-----------------------2----+
E+--4----------------------------------+--2----------------------------------+

E+-------------------------------------+-------------------------------------+
B+-----------------------------------2-+--0----------------------------------+
G+--------------------2----------------+--------------------1----------------+
D+--------------1------------1---------+--------------0-----------0----------+
A+--------2------------------------2---+--------2-----------------------2----+
E+--2----------------------------------+--0----------------------------------+


E+-------------------------------------+--------------------0----------------+
B+-------------------------------------+--------------0-----------0----------+
G+--------6----------------------------+--------2-----------------------2----+
D+--------------7-----6-----4-----2----+--2----------------------------------+
A+--0----------------------------------+-------------------------------------+
E+-------------------------------------+--2----------------------------------+

   CII
E+-------------------------------------+-------------------------------------+
B+--------------------4-----0----------+-------------------------------------+
G+--------2-----------------------2----+--2-----------1-----------------1----+
D+--------------4----------1-----------+-2------4-----------1-----2----------+
A+--2----------------------------------+-------------------------------------+
E+-------------------------------------+--0----------------------------------+

                                       D.C. al Coda
E+--------------------0-----4-----5----+
B+--0-----------0----------------------+
G+--------1----------------------------+
D+-------------------------------------+
A+-------------------------------------+
E+-------------------------------------+

                                          CII
E+--4----------------------------------+--2----------------------------------+
B+--------------------2----------------+--------------------2----------------+
G+--------------2-----------2----------+--------------2-----------2----------+
D+--------2-----------------------2----+--------4-----------------------4----+
A+--0----------------------------------+--5----------------------------------+
E+-------------------------------------+-------------------------------------+


E+--2----------------------------------+--0----------------------------------+
B+--------------------0----------------+--------------------0----------------+
G+--------------0-----------0----------+--------------0-----------0----------+
D+--------0-----------------------0----+--------2-----------------------2----+
A+-------------------------------------+--3----------------------------------+
E+--3----------------------------------+-------------------------------------+

   CII                                   CII
E+-------------------------------------+--------------2----------------------+
B+--5----------------------------------+--------------------------4----------+
G+--------------------2----------------+--------------2-----4-----2----------+
D+--------------2-----------2----------+--------4-----------------------4----+
A+--------4-----------------------4----+--2----------------------------------+
E+--2----------------------------------+-------------------------------------+


E+--0----------------------------------+--------------------0-----4-----7----+
B+-------------------------------------+--0-----------0----------------------+
G+--2-----------1-----------------1----+--------1----------------------------+
D+--------4-----------1-----2----------+-------------------------------------+
A+-------------------------------------+-------------------------------------+
E+--0----------------------------------+-------------------------------------+

  CIX                                    CII
E+-11----------12----------------------+-------------------------------------+
B+--9----------------------------------+--4-----------5----------------------+
G+--9----------------------------------+--2----------------------------------+
D+--9----------------------------------+--2----------------------------------+
A+-------------------------------------+--4----------------------------------+
E+--9----------------------------------+--2----------------------------------+

   CII                                    .
E+--------2-----4-----2----------------+--0----------------------------------+
B+--5--------------------------5-------+-------------------------------------+
G+--2----------------------------------+--2-----------4----------------------+
D+--4----------------------------------+--4-----------6----------------------+
A+--2----------------------------------+-------------------------------------+
E+-------------------------------------+--0----------------------------------+


Timing is as close as I can get it. I can't actually play 95% of this, so
I am assuming its right :-)

                Cheers... Mike
From: DEF5@PSUVM.PSU.EDU

CAVATINA by Stanley Myers              (Dag version)
    17 lines (everything is straight with Monaco 12 font)

1>
E|--0--4--5--7----------------|--7--------------------------|
B|---------------------5------|-----------8-----------------|
G|-------------------4---4----|--------7-----7--------------|
D|----------------6--------6--|-----6-----------6-----------|
A|----------------------------|--6--------------------------|
E|--------------0-------------|-----------------------------|

2>      hammer-on
E|----------------9-----------|-----------------7-----------|
B|-------10/->12----10--------|--------------7-----10-------|
G|-------9/------------9------|-----------8-----------------|
D|-----11/---------------11---|--------7--------------------|
A|-----9/---------------------|-----9-----------------------|
E|----------------------------|--7--------------------------|

3>
E|--7-------------------------|-----------------------------|
B|------------9---------------|--------3-----5--4-----------|
G|---------8-----8------------|-----4-----4-----------------|
D|------9-----------9---------|--6--------------------------|
A|----------------------------|-----------------------------|
E|--0------------------0------|-----------------------------|

4>
E|--4-------------------------|--2--------------------------|
B|-----------2----------------|-----------2-----------------|
G|--------2-----2-------------|--------2-----2--------------|
D|-----2-----------2----------|-----4-----------4-----------|
A|--0-------------------------|--5--------------------------|
E|----------------------------|-----------------------------|

5>
E|--0--2----------------------|--0--------------------------|
B|--------------0-------------|-----------0-----------------|
G|-----------0-----0----------|--------0-----0--------------|
D|--------0-----------0-------|-----2-----------2-----------|
A|----------------------------|--3--------------------------|
E|-----3----------------------|-----------------------------|

6>
E|--0-------------------------|-----------2-----------------|
B|-----------0----------------|-----------2-----------------|
G|--------2-----2-------------|--------2----4---------------|
D|-----4-----------4----------|-----4-----------------------|
A|--2-------------------------|--2--------------------------|
E|----------------------------|-----------------------------|

7>
E|--0-------------------------|-----------0--4--7--11-------|
B|--------1-------------------|--------0--------------------|
G|--2-------------------------|-----1-----------------------|
D|-----4----------------------|--2--------------------------|
A|----------------------------|-----------------------------|
E|--0-------------------------|-----------------------------|

8>                                       pulloffs
E|--12------------------------|--12------12>11>9--9-11-12-9-|
B|----------------------------|-----------------------------|
G|-----------9----------------|--------9--------------------|
D|--------9-----9-------------|-----9-----------------------|
A|-----9-----------9----------|--9--------------------------|
E|--9-------------------------|-----------------------------|

9>                                          pulloff
E|------11/-------------------|--------------9>7------------|
B|-----11/--11----------------|-----------9-----------------|
G|----11/------11-------------|--------8--------------------|
D|-----/----------9-----------|-----9-----------------------|
A|----/-----------------------|-----------------------------|
E|--9/------------------------|--7--------------------------|

10>
E|--5-------------------------|-----------------------------|
B|-----------2----------------|--10-------7-----------------|
G|--------2-----2-------------|-----8--------10-------------|
D|-----2-----------2----------|--------7---------8----------|
A|----------------------------|-----------9-----------------|
E|--2-------------------------|--7--------------------------|

11>
E|----------------------------|--------------0--2-----------|
B|--9--------9----------------|-----------3-----------------|
G|--------8-----8-------------|--------4--------------------|
D|-----9-----------9----------|-----2-----------------------|
A|----------------------------|-----------------------------|
E|--0-------------------------|--0--------------------------|

12>
E|--4-------------------------|--4--------------------------|
B|-----------2----------------|-----------2-----------------|
G|--------2-----2-------------|--------2-----2--------------|
D|-----2-----------2----------|-----4-----------4-----------|
A|--0-------------------------|--5--------------------------|
E|----------------------------|-----------------------------|

13>
E|--2-------------------------|-----0-----------------------|
B|-----------0----------------|--3-----------0--------------|
G|--------0-----0-------------|-----------0-----0-----------|
D|-----0-----------0----------|--------2-----------0--------|
A|----------------------------|-----3-----------------------|
E|--3-------------------------|-----------------------------|

14>                                          pulloff
E|--0-------------------------|---------------4/>2----------|
B|-----------0----------------|--------------2/-----4-------|
G|--------2----2--------------|--------2----2/--------------|
D|-----4----------4-----------|-----4------4/---------------|
A|--2-------------------------|--2--------2/----------------|
E|----------------------------|-----------------------------|

15>
E|--0-------------------------|-----------0----4--7--11-----|
B|----------------------------|--------0--------------------|
G|--2-----1-------------------|-----2-----------------------|
D|-----4----------------------|--3--------------------------|
A|----------------------------|-----------------------------|
E|--0-------------------------|-----------------------------|

16>          let ring
E|------12~~~~~~~~~~~~~~~~----|--------------0~~~~~~~~~~~---|
B|-----10/--------------------|-----------0-----------------|
G|-----9/---------------------|--------2--------------------|
D|---11/----------------------|-----4-----------------------|
A|---9/-----------------------|--2--------------------------|
E|--9/------------------------|-----------------------------|

17> slide                            slide
E|--2>>4---2------------------|----------------0-------------|T
B|------------4---------------|------------------------------|H
G|----------------------------|-----2/>>>4---------16--------|~~~~~-E
D|----------------------------|----4/>>>>6-------------------|E
A|----------------------------|----/-------------------------|N
E|----------------------------|--0/--------------------------|D
2 comments total.
0 reply
joshjhasarrived wrote on May 2 2006, 07:05 pm

what about guitar 1?

0 reply
the_triangle wrote on May 26 2007, 03:46 pm

this is awesome you just forgot the chords:P!!!!!!!!!!!!!

I want to post or [tab]
guest
You may want to rate the tab now too:
select rating
Please do not post tabs as comments. Select "correction" instead!