Oops, an error
Loading. Please wait.

B-list Tab

ver2
ver2

Whole song

More versions @911Tabs.com
1,910 views 3 this week
no commentswrite comment
1 2 3 4 5
excellent!
x 3
add to favorites launch autoscroll
font size
0
reset
Autoscroll
+/-
esc
set tempo
stop
Contributor
Difficulty
advanced
WARNING: You are trying to view
                                    content from Ultimate-Guitar.com
                                    in an unauthorized application,
                                    which is prohibited.

                                    Please use an official Ultimate
                                    Guitar Tabs application for iPhone,
                                    iPad or Android to access legitimate
                                    chords, guitar, bass, and drum tabs
                                    from Ultimate-Guitar.com database.

                                    Type "ultimate guitar tabs" in Apple
                                    App Store's or Android Market's
                                    search to find the application.
alright well i've known this song for a while so i decided to make a tab for it...
this tab is pretty long, but it's very detailed because the song has so many small
variations in the parts of the songs...everything should be there, and in order or
shows how many time a certain part repeats the exact thing...hope you like it...

Tuning:HALF-STEP DOWN!

Guitar 1-Mike
Guitar 2-Matt


Intro
Guitar 1 (x2)
e-0--0-0-0-0-0x-0--0-0-0-0-0x-0--0-0-0-0-0x-0--0-0-0-0-0x-0--0-0-0-0-0------0-----|
b-0--0-0-0-0-0x-0--0-0-0-0-0x-0--0-0-0-0-0x-0--0-0-0-0-0x-0--0-0-0-0-0----0---0---|
g-4--4-4-4-4-4x-4--4-4-4-4-4x-4--4-4-4-4-4x-4--4-4-4-4-4x-4--4-4-4-4-4------------|
d-6--6-6-6-6-6x-6--6-6-6-6-6x-2--2-2-2-2-2x-2--2-2-2-2-2x-2--2-2-2-2-2-/4-------4-|
a---------------------------------------------------------4--4-4-4-4-4------------|
E---------------------------------------------------------------------------------|
Intro Cont.
Guitar 1
e-4r2-4r2-4r2---4r2-4r2-4r2---7-7-7-7-7-7---0-0-0-0-0-0-------4-------------4----|
b-2~~-2~~-2~~---2~~-2~~-2~~---5-5-5-5-5-5---4-4-4-4-4-2--------5---------5----5~-|
g-----------------------------6-6-6-6-6-6---4-4-4-4-4-4-----4---4-------6-6------|
d--------------------------------------------------------/4------4---/6----------|
a--------------------------------------------------------------------------------|
E--------------------------------------------------------------------------------|
Guitar 2
e-------------------------------------------------------------------------------|
b-------------------------------------------------------------------------------|
g-6-6-6-6-6-6---6-6-6-6-6-6-----------------------------------------4-4-4-4-4-4-|
d-6-6-6-6-6-6---6-6-6-6-6-6---7-7-7-7-7-7---7-7-7-7-7-7---4-4-4-4-4-4-4-4-4-4-4-|
a-4-4-4-4-4-4---4-4-4-4-4-4---7-7-7-7-7-7---7-7-7-7-7-7---4-4-4-4-4-2-2-2-2-2-2-|
E-4-4-4-4-4-4---4-4-4-4-4-4---5-5-5-5-5-5---5-5-5-5-5-5---2-2-2-2-2-------------|

Verse
Guitar 1
e----0~-----------0~-----------0~---0~--|
b--4------------2------------2-----4-4~-|
g-4-----------2------------------4------|
d--------------------------4------------|
a---------------------------------------|
E---------------------------------------|
Guitar 2
e--------------------------------------|
b--------------------------------------|
g-66-6~-------------------------44-4~--|
d-66-6~------777777x------44-4~-44-4~--|
a-44-4~------777777x------44-4~-22-2~--|
E-44-4~------555555x------22-2~-..-----|
  ..                      ..
Verse Cont.
Guitar 1
e-----7~-----------0~-----------0~---0~--|
b---5------------2------------2-----4-4~-|
g-6------------2------------------4------|
d---------------------------4------------|
a----------------------------------------|
E----------------------------------------|
Guitar 2
e---------------------------------------|
b---------------------------------------|
g-66666x-------------------------44444--|
d-66666x------777777x------44444-44444--|
a-44444x------777777x------44444-22222--|
E-44444x------555555x------22222--------|

Pre Chorus
Both Guitars
e-0-0-0-0-0-0-0-0-0-0-0-0-0-0-------------------------------|
b-0-0-0-0-0-0-0-0-0-0-0-0-0-0-------------------------------|
g-2-2-2-2-2-2-2-2-2-2-2-2-2-2----6-----8------9-------11----|
d-2-2-2-2-2-2-2-2-2-2-2-2-2-2--7---7/9---9/11---11/13----13-|
a-0-0-0-0-0-0-0-x-x-x-x-x-x-x-------------------------------|
E---------------4-4-4-4-4-4-4-------------------------------|

e-0-0-0-0-0-0-0-0-0-0-0-0-0-0--0-0-0-0-0-0--0--0--0--0--0--0-|
b-0-0-0-0-0-0-0-0-0-0-0-0-0-0--0-0-0-0-0-0--0--0--0--0--0--0-|
g-2-2-2-2-2-2-2-2-2-2-2-2-2-2--6-6-6-8-8-8--9--9--9-11-11-11-|
d-2-2-2-2-2-2-2-2-2-2-2-2-2-2--7-7-7-9-9-9-11-11-11-13-13-13-|
a-0-0-0-0-0-0-0-x-x-x-x-x-x-x--------------------------------|
E---------------4-4-4-4-4-4-4--------------------------------|

Chorus
Guitar 1
e----------------------------------------2h4r2-----0--------0r2-4r2-0-2-4-2-0-|
b--------------------------------------0-------0-4---4-0--0-------------------|
g-----13/11-----14/13---11/9-9--9-11/-----------------------------------------|
d------x--x------x--x----x-x-x--x--x------------------------------------------|
a-----11/-9-----12/11----9/7-7--7--9/-----------------------------------------|
E-----------------------------------------------------------------------------|
Guitar 2
e--------------------------------------0-0-0-0-0-0-0-0-0--0-0-0-0-0-0-0-0-0-0-|
b--------------------------------------0-0-0-0-0-0-0-0-0--0-0-0-0-0-0-0-0-0-0-|
g--------------------------------------2-2-2-2-2-2-4-4-4--4-4-4-4-4-4-4-4-4-4-|
d-2-2x------2-2x------4-4x------4-4x---2-2-2-2-2-2-4-4-4--2-2-2-2-2-2-2-2-2-2-|
a-2-2x------2-2x------4-4x------4-4x---0-0-0-0-0-0-2-2-2--4-4-4-4-4-4-4-4-4-4-|
E-0-0x------0-0x------2-2x------2-2x------------------------------------------|
Chorus Cont.
Guitar 1
e----------------------------------------2h4r2-----0------12~-----------------|
b--------------------------------------0-------0-4---4-0----------------------|
g-----13/11-----14/13---11/9-9--9-11/-----------------------------------------|
d------x--x------x--x----x-x-x--x--x------------------------------------------|
a-----11/-9-----12/11----9/7-7--7--9/-----------------------------------------|
E-----------------------------------------------------------------------------|
Guitar 2
e--------------------------------------0-0-0-0-0-0-0-0-0--0~------------------|
b--------------------------------------0-0-0-0-0-0-0-0-0--0~------------------|
g-2-2x------2-2x------4-4x------4-4x---4-4-4-4-4-4-4-4-4--2~------------------|
d-2-2x------2-2x------4-4x------4-4x---2-2-2-2-2-2-4-4-4--2~------------------|
a-0-0x------0-0x------2-2x------2-2x---4-4-4-4-4-4-2-2-2--0~------------------|
E-----------------------------------------------------------------------------|

Post Chorus (x2)
Guitar 1
e--------------------------------------------7--7--7----|
b------5--5---------7-5-7-5--------7-5-7-5-----5--5--5--|
g-6--6--6--6---6--6-----------4--4--------------------6-|
d-------------------------------------------------------|
a-------------------------------------------------------|
E-------------------------------------------------------|
Guitar 2
e---------------------------------------------------------|
b---------------------------------------------------------|
g-6-6-6-6-6-----------------------------------4-4-4-4-4-4-|
d-6-6-6-6-6---7-7-7-7-7-7-7---2-2-2-2-2-2-2---4-4-4-4-4-4-|
a-4-4-4-4-4---7-7-7-7-7-7-7---2-2-2-2-2-2-2---2-2-2-2-2-2-|
E-4-4-4-4-4---5-5-5-5-5-5-5---0-0-0-0-0-0-0---------------|

Second Verse
Guitar 1-Comes in later than Guitar 2
e---------------------------------------------------------------------------7--7--7----|
b-----------------------------------------------------------------------------5--5--5--|
g--------------55----55-----55----55--5--57-55-77--5--57-55-77-----57-55-7-----------6-|
d-----------6--..-66-..--6--..-66-..--.--..-..-..--.--..-..-..--4--..-..-.-------------|
a-----------.-----..-----.-----..-------------------------------.----------------------|
E--------------------------------------------------------------------------------------|
Guitar 2
e----
b----
g-6~-
d-6~-
a-4~-
E-4~-

Second Pre Chorus
Both Guitars
e-0-0-0-0-0-0-0-0-0-0-0-0-0-0-------------------------------|
b-0-0-0-0-0-0-0-0-0-0-0-0-0-0-------------------------------|
g-2-2-2-2-2-2-2-2-2-2-2-2-2-2----6-----8------9-------11----|
d-2-2-2-2-2-2-2-2-2-2-2-2-2-2--7---7/9---9/11---11/13----13-|
a-0-0-0-0-0-0-0-x-x-x-x-x-x-x-------------------------------|
E---------------4-4-4-4-4-4-4-------------------------------|

e-0-0-0-0-0-0--0--0--0--0--0--0-|
b-0-0-0-0-0-0--0--0--0--0--0--0-|
g-6-6-6-8-8-8--9--9--9-11-11-11-|
d-7-7-7-9-9-9-11-11-11-13-13-13-|
a-------------------------------|
E-------------------------------|

Chorus
Guitar 1
e----------------------------------------2h4r2-----0--------0r2-4r2-0-2-4-2-0-|
b--------------------------------------0-------0-4---4-0--0-------------------|
g-----13/11-----14/13---11/9-9--9-11/-----------------------------------------|
d------x--x------x--x----x-x-x--x--x------------------------------------------|
a-----11/-9-----12/11----9/7-7--7--9/-----------------------------------------|
E-----------------------------------------------------------------------------|
Guitar 2
e--------------------------------------0-0-0-0-0-0-0-0-0--0-0-0-0-0-0-0-0-0-0-|
b--------------------------------------0-0-0-0-0-0-0-0-0--0-0-0-0-0-0-0-0-0-0-|
g--------------------------------------2-2-2-2-2-2-4-4-4--4-4-4-4-4-4-4-4-4-4-|
d-2-2x------2-2x------4-4x------4-4x---2-2-2-2-2-2-4-4-4--2-2-2-2-2-2-2-2-2-2-|
a-2-2x------2-2x------4-4x------4-4x---0-0-0-0-0-0-2-2-2--4-4-4-4-4-4-4-4-4-4-|
E-0-0x------0-0x------2-2x------2-2x------------------------------------------|

Chorus Cont.
Guitar 1
e----------------------------------------2h4r2-----0--------2r4r2-----0-----|
b--------------------------------------0-------0-4---4-0--0-------0-4---4-0-|
g-----13/11-----14/13---11/9-9--9-11/---------------------------------------|
d------x--x------x--x----x-x-x--x--x----------------------------------------|
a-----11/-9-----12/11----9/7-7--7--9/---------------------------------------|
E---------------------------------------------------------------------------|
Guitar 2
e--------------------------------------0-0-0-0-0-0-0-0-0--0-0-0-0-0-0-0-0-0-0-|
b--------------------------------------0-0-0-0-0-0-0-0-0--0-0-0-0-0-0-0-0-0-0-|
g-2-2x------2-2x------4-4x------4-4x---4-4-4-4-4-4-4-4-4--2-2-2-2-2-2-2-2-2-2-|
d-2-2x------2-2x------4-4x------4-4x---2-2-2-2-2-2-4-4-4--2-2-2-2-2-2-2-2-2-2-|
a-0-0x------0-0x------2-2x------2-2x---4-4-4-4-4-4-2-2-2--0-0-0-0-0-0-0-0-0-0-|
E-----------------------------------------------------------------------------|

Chorus Cont.
Guitar 1
e--------------------|
b--------------------|
g-------------8~-----|
d-4~-------/9~-------|
a--------------------|
E--------------------|
Guitar 2
e--------------------][-0~-|
b--------------------][-0~-|
g-----------4-4-4~---][-2~-|
d-4-4-4~----4-4-4~---][-2~-|
a-4-4-4~----2-2-2~---][-0~-|
E-2-2-2~-------------][----|

Bridge
Guitar 1(Clean)(x4)
e-4-----4-------]-4-----4-------]-7-----7-------]-9r7---7~-9r7---7~-]
b---5-----5---5-]---5-----5---5-]---5-----5-----]-----7--------7----]
g-----6-----6---]-----6-----6---]-----4-----4-4-]-------------------]
d---------------]---------------]---------------]-------------------]
a---------------]---------------]---------------]-------------------]
E---------------]---------------]---------------]-------------------]
Guitar 2(Clean)(x4)
e----4----4-----------]----4----4-----------]----0--0------]--------------]
b-5h7--5h7--7r5-----5-]-5h7--5h7--7r5-----5-]---------4----]-----7--7---4-]
g--------------6-4h6--]--------------6-4h6--]-4h6--6----6--]-4h6--6--6----]
d---------------------]---------------------]--------------]--------------]
a---------------------]---------------------]--------------]--------------]
E---------------------]---------------------]--------------]--------------]
Bridge Cont.-This comes in on the last two measures of the clean guitars
Both Guitars(w/ distortion)(x2)
e-------------------]-----------------]-----------------]-----------------]
b-------------------]-----------------]-----------------]-----------------]
g-------------------]-----------------]-----------------]-----------------]
d-2-2-2-2-2-2-2-2-2-]-2-2-2-2-2-2-2-2-]-----------------]-4-4-4-4-4-4-4-4-]
a-0-0-0-0-0-0-0-0-0-]-0-0-0-0-0-0-0-0-]-4-4-4-4-4-4-4-4-]-2-2-2-2-2-2-2-2-]
E-.-.-.-.-.-.-.-.-.-]-.-.-.-.-.-.-.-.-]-2-2-2-2-2-2-2-2-]-.-.-.-.-.-.-.-.-]
                                        . . . . . . . .
Third Pre Chorus
Both Guitars
e-----------------------------|
b-----------------------------|
g---6-----8------9------11----|
d-7---7/9---9/11--11/13----13-|
a-----------------------------|
E-----------------------------|

e-0-0-0-0-0-0--0--0--0--0--0--0-|
b-0-0-0-0-0-0--0--0--0--0--0--0-|
g-6-6-6-8-8-8--9--9--9-11-11-11-|
d-7-7-7-9-9-9-11-11-11-13-13-13-|
a-------------------------------|
E-------------------------------|

Third Chorus
Guitar 1
e----------------------------------------2h4r2-----0--------0r2-4r2-0-2-4-2-0-|
b--------------------------------------0-------0-4---4-0--0-------------------|
g-----13/11-----14/13---11/9-9--9-11/-----------------------------------------|
d------x--x------x--x----x-x-x--x--x------------------------------------------|
a-----11/-9-----12/11----9/7-7--7--9/-----------------------------------------|
E-----------------------------------------------------------------------------|
Guitar 2
e--------------------------------------0-0-0-0-0-0-0-0-0--0-0-0-0-0-0-0-0-0-0-|
b--------------------------------------0-0-0-0-0-0-0-0-0--0-0-0-0-0-0-0-0-0-0-|
g--------------------------------------2-2-2-2-2-2-4-4-4--4-4-4-4-4-4-4-4-4-4-|
d-2-2-2-2-2-2-2-2-2-2-4-4-4-4-4-4-4-4--2-2-2-2-2-2-4-4-4--2-2-2-2-2-2-2-2-2-2-|
a-2-2-2-2-2-2-2-2-2-2-4-4-4-4-4-4-4-4--0-0-0-0-0-0-2-2-2--4-4-4-4-4-4-4-4-4-4-|
E-0-0-0-0-0-0-0-0-0-0-2-2-2-2-2-2-2-2-----------------------------------------|
Chorus Cont.
Guitar 1
e----------------------------------------2h4r2-----0--------0r2-4r2-0-2-4-2-0-|
b--------------------------------------0-------0-4---4-0--0-------------------|
g-----13/11-----14/13---11/9-9--9-11/-----------------------------------------|
d------x--x------x--x----x-x-x--x--x------------------------------------------|
a-----11/-9-----12/11----9/7-7--7--9/-----------------------------------------|
E-----------------------------------------------------------------------------|
Guitar 2
e--------------------------------------0-0-0-0-0-0-0-0-0--0-0-0-0-0-xxxxxxxx-|
b--------------------------------------0-0-0-0-0-0-0-0-0--0-0-0-0-0-xxxxxxxx-|
g-2-2-2-2-2-2-2-2-2-2-4-4-4-4-4-4-4-4--4-4-4-4-4-4-4-4-4--2-2-2-2-2-xxxxxxxx-|
d-2-2-2-2-2-2-2-2-2-2-4-4-4-4-4-4-4-4--2-2-2-2-2-2-4-4-4--2-2-2-2-2-xxxxxxxx-|
a-0-0-0-0-0-0-0-0-0-0-2-2-2-2-2-2-2-2--4-4-4-4-4-4-2-2-2--0-0-0-0-0-xxxxxxxx-|
E-------------------------------------------------------------------xxxxxxxx-|

Last Chorus
Guitar 1
e----------------------------------------2h4r2-----0--------0r2-4r2-0-2-4-2-0-|
b--------------------------------------0-------0-4---4-0--0-------------------|
g-----13/11-----14/13---11/9-9--9-11/-----------------------------------------|
d------x--x------x--x----x-x-x--x--x------------------------------------------|
a-----11/-9-----12/11----9/7-7--7--9/-----------------------------------------|
E-----------------------------------------------------------------------------|
Guitar 2
e--------------------------------------0-0-0-0-0-0-0-0-0--0-0-0-0-0-0-0-0-0-0-|
b--------------------------------------0-0-0-0-0-0-0-0-0--0-0-0-0-0-0-0-0-0-0-|
g--------------------------------------2-2-2-2-2-2-4-4-4--4-4-4-4-4-4-4-4-4-4-|
d-2-2-2-2-2-2-2-2-2-2-4-4-4-4-4-4-4-4--2-2-2-2-2-2-4-4-4--2-2-2-2-2-2-2-2-2-2-|
a-2-2-2-2-2-2-2-2-2-2-4-4-4-4-4-4-4-4--0-0-0-0-0-0-2-2-2--4-4-4-4-4-4-4-4-4-4-|
E-0-0-0-0-0-0-0-0-0-0-2-2-2-2-2-2-2-2-----------------------------------------|
Chorus Cont.
Guitar 1
e----------------------------------------2h4r2-----0--------0r2-4r2-0-2-4-2-0-]-12~-|
b--------------------------------------0-------0-4---4-0--0-------------------]-----|
g-----13/11-----14/13---11/9-9--9-11/-----------------------------------------]-----|
d------x--x------x--x----x-x-x--x--x------------------------------------------]-----|
a-----11/-9-----12/11----9/7-7--7--9/-----------------------------------------]-----|
E-----------------------------------------------------------------------------]-----|
Guitar 2
e--------------------------------------0-0-0-0-0-0-0-0-0--0-0-0-0-0-0-0-0-0-0-|
b--------------------------------------0-0-0-0-0-0-0-0-0--0-0-0-0-0-0-0-0-0-0-|
g-2-2-2-2-2-2-2-2-2-2-4-4-4-4-4-4-4-4--4-4-4-4-4-4-4-4-4--2-2-2-2-2-2-2-2-2-2-|
d-2-2-2-2-2-2-2-2-2-2-4-4-4-4-4-4-4-4--2-2-2-2-2-2-4-4-4--2-2-2-2-2-2-2-2-2-2-|
a-0-0-0-0-0-0-0-0-0-0-2-2-2-2-2-2-2-2--4-4-4-4-4-4-2-2-2--0-0-0-0-0-0-0-0-0-0-|
E-----------------------------------------------------------------------------|

Outro
Guitar 1
e-----0----------------------0---------------|
b-------4----------------------4-------------|
g---4----------------------4-----------------|
d------------6-6-7-9~---------------6-6-7-9~-|
a----------0~---------------------0~---------|
E-0~--------------------0~-------------------|
Guitar 2
e---------------------------------0-0-0-0-0~-|
b---------------------------------0-0-0-0-0~-|
g---------------------------------2-2-2-2-2~-|
d-2~------------------------------2-2-2-2-2~-|
a-2~------------------------------0-0-0-0-0~-|
E-0~-----------------------------------------|
Outro Cont.(x2)
Guitar 1
e-----0----------------------0---------------|
b-------4----------------------4-------------|
g---4----------------------4-----------------|
d------------6-6-7-9~---------------6-6-7-9~-|
a----------0~---------------------0~---------|
E-0~--------------------0~-------------------|
Guitar 2
e-----0----------------------0----0-0-0-0-0~-|
b-------4----------------------4--0-0-0-0-0~-|
g---4----------------------4------2-2-2-2-2~-|
d------------6-6-7-6~-------------2-2-2-2-2~-|
a----------0~---------------------0-0-0-0-0~-|
E-0~--------------------0~-------------------|

Ending
Guitar 1
e-----0---------0------------0---------------|
b-------4----------------------4-------------|
g---4--------4-------------4-----------------|
d-----------------------------------6-6-7-9~-|
a----------0~------0~-------------0~---------|
E-0~--------------------0~-------------------|
Guitar 2
Guitar 1
e-----0---------0------------0---------------|
b-------4----------4~----------4-------------|
g---4--------4-------------4-----------------|
d--------------------------------------------|
a----------0~----------------------(silent)--|
E-0~--------------------0~-------------------|
Ending Cont.
Both Guitars
e----
b-5~-
g-4~-
d-2~-
a-2~-
E-0~-
comments
We did not receive enough feedback on this tab! Please rate:
print report bad tab
1 2 3 4 5
I want to post or [tab]
guest
You may want to rate the tab now too:
select rating
Please do not post tabs as comments. Select "correction" instead!