Oops, an error
Loading. Please wait.

Blood On Our Hands Tab

1,349 views 1 this week
4 commentsread comments
1 2 3 4 5
excellent!
x 1
Autoscroll
+/-
esc
set tempo
stop
Contributor
Hey! There's an official Ultimate Guitar app which is ideal
for learning songs when you're away from computer. Get the app
WARNING: You are trying to view
                                    content from Ultimate-Guitar.com
                                    in an unauthorized application,
                                    which is prohibited.

                                    Please use an official Ultimate
                                    Guitar Tabs application for iPhone,
                                    iPad or Android to access legitimate
                                    chords, guitar, bass, and drum tabs
                                    from Ultimate-Guitar.com database.

                                    Type "ultimate guitar tabs" in Apple
                                    App Store's or Android Market's
                                    search to find the application.
Steak Number Eight - Blood On Our Hands - Tabbed by Brecht Thery
Guitar 1 (Slightly Overdriven) CGCFAD (Drop C)
Guitar 2 (Overdriven)          CGCFAD (Drop C)
Guitar 3 (Distorted)           CGCFAD (Drop C)
Guitar 4 (Distorted)           CGCFAD (Drop C)

http://www.steakn8.be/

Guitar 2 is mainly palmmuted, some notes aren’t, but I think you can sort it out for yourself.
I think Guitar 1 is palmmuted as well in some parts, but maybe it’s just the volume that 
turned down on the album. I’m not too sure about the bridge part.

|-----------------------------------------------------------------|
|-----------------------------------------------------------------|
|-----------------------------------------------------------------|
|----0-----0-----0-----0-----0-------0------0-----0-----0-----0---|
|--0-----0-----0-----0-----0-------0------0-----0-----0-----0-----|
|3-----0-----7-----7-----7-----7-8-----10-----5-----5-----5-----5-|
|Guitar 1

|-----------------------------------------------------------------|
|-----------------------------------------------------------------|
|-----------------------------------------------------------------|
|----0-----0-----0-----0-----0-------0------0-----0-----0-----0---|
|--0-----0-----0-----0-----0-------0------0-----0-----0-----0-----|
|3-----0-----7-----7-----7-----7-8-----10-----5-----5-----5-----5-|
|Guitar 1

|-----------------------------------------------------------------------------------|
|-----------------------------------------------------------------------------------|
|-----------------------------------------------------------------------------------|
|-0--0--0--0--0--0--0--0--0--0--0--0--0--0--0--0--0--0--0-0-0-0-0-0-0-0-0-0-0-0-0-0-|
|12-12-12-12-12-12-12-12-12-12-12-12-12-12-12-12-10-10-10-8-8-8-7-5-5-5-5-5-5-5-5-5-|
|-----------------------------------------------------------------------------------|
|Guitar 2
|
|-----------------------------------------------------------------------------------|
|-----------------------------------------------------------------------------------|
|-----------------------------------------------------------------------------------|
|-------0--------0--------0--------0--------0-----------0-----0-----0-----0-----0---|
|----0--------0--------0--------0--------0-----------0------0-----0-----0-----0-----|
|-3--------0--------7--------7--------7--------7--8-------10----5-----5-----5-----5-|
|Guitar 1

|-----------------------------------------------------------------------------------|
|-----------------------------------------------------------------------------------|
|-----------------------------------------------------------------------------------|
|-0--0--0--0--0--0--0--0--0--0--0--0--0--0--0--0--0--0--0-0-0-0-0-0-0-0-0-0-0-0-0-0-|
|12-12-12-12-12-12-12-12-12-12-12-12-12-12-12-12-10-10-10-8-8-8-7-5-5-5-5-5-5-5-5-5-|
|-----------------------------------------------------------------------------------|
|Guitar 2
|
|-----------------------------------------------------------------------------------|
|-----------------------------------------------------------------------------------|
|-----------------------------------------------------------------------------------|
|-------0--------0--------0--------0--------0-----------0-----0-----0-----0-----0---|
|----0--------0--------0--------0--------0-----------0------0-----0-----0-----0-----|
|-3--------0--------7--------7--------7--------7--8-------10----5-----5-----5-----5-|
|Guitar 1

|-----------------------------------------------------------------------------------|
|-----------------------------------------------------------------------------------|
|-----------------------------------------------------------------------------------|
|-0--0--0--0--0--0--0--0--0--0--0--0--0--0--0--0--0--0--0-0-0-0-0-0-0-0-0-0-0-0-0-0-|
|12-12-12-12-12-12-12-12-12-12-12-12-12-12-12-12-10-10-10-8-8-8-7-5-5-5-5-5-5-5-5-5-|
|-----------------------------------------------------------------------------------|
|Guitar 2
|
|-----------------------------------------------------------------------------------|
|-----------------------------------------------------------------------------------|
|-----------------------------------------------------------------------------------|
|-------0--------0--------0--------0--------0-----------0-----0-----0-----0-----0---|
|----0--------0--------0--------0--------0-----------0------0-----0-----0-----0-----|
|-3--------0--------7--------7--------7--------7--8-------10----5-----5-----5-----5-|
|Guitar 1




|-----------------------------------------------------------------------------------|
|-----------------------------------------------------------------------------------|
|-----------------------------------------------------------------------------------|
|-0--0--0--0--0--0--0--0--0--0--0--0--0--0--0--0--0--0--0-0-0-0-0-0-0-0-0-0-0-0-0-0-|
|12-12-12-12-12-12-12-12-12-12-12-12-12-12-12-12-10-10-10-8-8-8-7-5-5-5-5-5-5-5-5-5-|
|-----------------------------------------------------------------------------------|
|Guitar 2
|
|-----------------------------------------------------------------------------------|
|-----------------------------------------------------------------------------------|
|-----------------------------------------------------------------------------------|
|-------0--------0--------0--------0--------0-----------0-----0-----0-----0-----0---|
|----0--------0--------0--------0--------0-----------0------0-----0-----0-----0-----|
|-3--------0--------7--------7--------7--------7--8-------10----5-----5-----5-----5-|
|Guitar 1

|-----------------------------------------------------------------------------------|
|-----------------------------------------------------------------------------------|
|-----------------------------------------------------------------------------------|
|-0--0--0--0--0--0--0--0--0--0--0--0--0--0--0--0--0--0--0-0-0-0-0-0-0-0-0-0-0-0-0-0-|
|12-12-12-12-12-12-12-12-12-12-12-12-12-12-12-12-10-10-10-8-8-8-7-5-5-5-5-5-5-5-5-5-|
|-----------------------------------------------------------------------------------|
|Guitar 2
|
|-----------------------------------------------------------------------------------|
|-----------------------------------------------------------------------------------|
|-----------------------------------------------------------------------------------|
|-------0--------0--------0--------0--------0-----------0-----0-----0-----0-----0---|
|----0--------0--------0--------0--------0-----------0------0-----0-----0-----0-----|
|-3--------0--------7--------7--------7--------7--8-------10----5-----5-----5-----5-|
|Guitar 1

|-----------------------------------------------------------------------------------|
|-----------------------------------------------------------------------------------|
|-----------------------------------------------------------------------------------|
|-0--0--0--0--0--0--0--0--0--0--0--0--0--0--0--0--0--0--0-0-0-0-0-0-0-0-0-0-0-0-0-0-|
|12-12-12-12-12-12-12-12-12-12-12-12-12-12-12-12-10-10-10-8-8-8-7-5-5-5-5-5-5-5-5-5-|
|-----------------------------------------------------------------------------------|
|Guitar 2
|
|-----------------------------------------------------------------------------------|
|-----------------------------------------------------------------------------------|
|-----------------------------------------------------------------------------------|
|-------0--------0--------0--------0--------0-----------0-----0-----0-----0-----0---|
|----0--------0--------0--------0--------0-----------0------0-----0-----0-----0-----|
|-3--------0--------7--------7--------7--------7--8-------10----5-----5-----5-----5-|
|Guitar 1

|-----------------------------------------------------------------------------------|
|-----------------------------------------------------------------------------------|
|-----------------------------------------------------------------------------------|
|-0--0--0--0--0--0--0--0--0--0--0--0--0--0--0--0--0--0--0-0-0-0-0-0-0-0-0-0-0-0-0-0-|
|12-12-12-12-12-12-12-12-12-12-12-12-12-12-12-12-10-10-10-8-8-8-7-5-5-5-5-5-5-5-5-5-|
|-----------------------------------------------------------------------------------|
|Guitar 2
|
|-----------------------------------------------------------------------------------|
|-----------------------------------------------------------------------------------|
|-----------------------------------------------------------------------------------|
|-3--------0--------7-----------------------------8-------10----5-------------------|
|-3--------0--------7-----------------------------8-------10----5-------------------|
|-3--------0--------7-----------------------------8-------10----5-------------------|
|Guitar 1

|-----------------------------------------------------------------------------------|
|-----------------------------------------------------------------------------------|
|-----------------------------------------------------------------------------------|
|-0--0--0--0--0--0--0--0--0--0--0--0--0--0--0--0--0--0--0-0-0-0-0-0-0-0-0-0-0-0-0-0-|
|12-12-12-12-12-12-12-12-12-12-12-12-12-12-12-12-10-10-10-8-8-8-7-5-5-5-5-5-5-5-5-5-|
|-----------------------------------------------------------------------------------|
|Guitar 2
|
|-----------------------------------------------------------------------------------|
|-----------------------------------------------------------------------------------|
|-----------------------------------------------------------------------------------|
|-3--------0--------7-----------------------------8-------10----5-------------------|
|-3--------0--------7-----------------------------8-------10----5-------------------|
|-3--------0--------7-----------------------------8-------10----5-------------------|
|Guitar 1

|-----------------------------------------------------------------------------------|
|-----------------------------------------------------------------------------------|
|-----------------------------------------------------------------------------------|
|-0--0--0--0--0--0--0--0--0--0--0--0--0--0--0--0--0--0--0-0-0-0-0-0-0-0-0-0-0-0-0-0-|
|12-12-12-12-12-12-12-12-12-12-12-12-12-12-12-12-10-10-10-8-8-8-7-5-5-5-5-5-5-5-5-5-|
|-----------------------------------------------------------------------------------|
|Guitar 2
|
|-----------------------------------------------------------------------------------|
|-----------------------------------------------------------------------------------|
|-----------------------------------------------------------------------------------|
|-3--------0--------7-----------------------------8-------10----5-------------------|
|-3--------0--------7-----------------------------8-------10----5-------------------|
|-3--------0--------7-----------------------------8-------10----5-------------------|
|Guitar 1

|-----------------------------------------------------------------------------------|
|-----------------------------------------------------------------------------------|
|-----------------------------------------------------------------------------------|
|-0--0--0--0--0--0--0--0--0--0--0--0--0--0--0--0--0--0--0-0-0-0-0-0-0-0-0-0-0-0-0-0-|
|12-12-12-12-12-12-12-12-12-12-12-12-12-12-12-12-10-10-10-8-8-8-7-5-5-5-5-5-5-5-5-5-|
|-----------------------------------------------------------------------------------|
|Guitar 2
|
|-----------------------------------------------------------------------------------|
|-----------------------------------------------------------------------------------|
|-----------------------------------------------------------------------------------|
|-3--------0--------7-----------------------------8-------10----5-------------------|
|-3--------0--------7-----------------------------8-------10----5-------------------|
|-3--------0--------7-----------------------------8-------10----5-------------------|
|Guitar 1

|-----------------------------------------------------------------------------------|
|-----------------------------------------------------------------------------------|
|-----------------------------------------------------------------------------------|
|-0--0--0--0--0--0--0--0--0--0--0--0--0--0--0--0--0--0--0-0-0-0-0-0-0-0-0-0-0-0-0-0-|
|12-12-12-12-12-12-12-12-12-12-12-12-12-12-12-12-10-10-10-8-8-8-7-5-5-5-5-5-5-5-5-5-|
|-----------------------------------------------------------------------------------|
|Guitar 2
|
|-----------------------------------------------------------------------------------|
|-----------------------------------------------------------------------------------|
|-----------------------------------------------------------------------------------|
|-------0--------0--------0--------0--------0-----------0-----0-----0-----0-----0---|
|----0--------0--------0--------0--------0-----------0------0-----0-----0-----0-----|
|-3--------0--------7--------7--------7--------7--8-------10----5-----5-----5-----5-|
|Guitar 1

|-----------------------------------------------------------------------------------|
|-----------------------------------------------------------------------------------|
|-----------------------------------------------------------------------------------|
|-0--0--0--0--0--0--0--0--0--0--0--0--0--0--0--0--0--0--0-0-0-0-0-0-0-0-0-0-0-0-0-0-|
|12-12-12-12-12-12-12-12-12-12-12-12-12-12-12-12-10-10-10-8-8-8-7-5-5-5-5-5-5-5-5-5-|
|-----------------------------------------------------------------------------------|
|Guitar 2
|
|-----------------------------------------------------------------------------------|
|-----------------------------------------------------------------------------------|
|-----------------------------------------------------------------------------------|
|-------0--------0--------0--------0--------0-----------0-----0-----0-----0-----0---|
|----0--------0--------0--------0--------0-----------0------0-----0-----0-----0-----|
|-3--------0--------7--------7--------7--------7--8-------10----5-----5-----5-----5-|
|Guitar 1

|--------------------------------------------------------------------------------------|
|--------------------------------------------------------------------------------------|
|14-14-14-14-14-14-14-14-14-14-14-14-14-14-14-14-12-12-12-10-10-10-9-7-7—7-7-7-7-7-7-7-|
|--------------------------------------------------------------------------------------|
|12-12-12-12-12-12-12-12-12-12-12-12-12-12-12-12-10-10-10--8--8--8-7-5-5-5-5-5-5-5-5-5-|
|--------------------------------------------------------------------------------------|
|Guitar 3
|
|--------------------------------------------------------------------------------------|
|--------------------------------------------------------------------------------------|
|--------------------------------------------------------------------------------------|
|-3--------0--------7--------7--7--7--7--7--7--7--8-------10-------5-----5-5-5-5-5-5-5-|
|-3--------0--------7--------7--7--7--7--7--7--7--8-------10-------5-----5-5-5-5-5-5-5-|
|-3--------0--------7--------7--7--7--7--7--7--7--8-------10-------5-----5-5-5-5-5-5-5-|
|PM..........................^..^..^..^..^..^..^.........................^.^.^.^.^.^.^.
|Guitar 4


|--------------------------------------------------------------------------------------|
|--------------------------------------------------------------------------------------|
|14-14-14-14-14-14-14-14-14-14-14-14-14-14-14-14-12-12-12-10-10-10-9-7-7—7-7-7-7-7-7-7-|
|--------------------------------------------------------------------------------------|
|12-12-12-12-12-12-12-12-12-12-12-12-12-12-12-12-10-10-10--8--8--8-7-5-5-5-5-5-5-5-5-5-|
|--------------------------------------------------------------------------------------|
|Guitar 3
|
|--------------------------------------------------------------------------------------|
|--------------------------------------------------------------------------------------|
|--------------------------------------------------------------------------------------|
|-3--------0--------7--------7--7--7--7--7--7--7--8-------10-------5-----5-5-5-5-5-5-5-|
|-3--------0--------7--------7--7--7--7--7--7--7--8-------10-------5-----5-5-5-5-5-5-5-|
|-3--------0--------7--------7--7--7--7--7--7--7--8-------10-------5-----5-5-5-5-5-5-5-|
|PM..........................^..^..^..^..^..^..^.........................^.^.^.^.^.^.^.
|Guitar 4

|--------------------------------------------------------------------------------------|
|--------------------------------------------------------------------------------------|
|14-14-14-14-14-14-14-14-14-14-14-14-14-14-14-14-12-12-12-10-10-10-9-7-7—7-7-7-7-7-7-7-|
|--------------------------------------------------------------------------------------|
|12-12-12-12-12-12-12-12-12-12-12-12-12-12-12-12-10-10-10--8--8--8-7-5-5-5-5-5-5-5-5-5-|
|--------------------------------------------------------------------------------------|
|Guitar 3
|
|--------------------------------------------------------------------------------------|
|--------------------------------------------------------------------------------------|
|--------------------------------------------------------------------------------------|
|-3--------0--------7--------7--7--7--7--7--7--7--8-------10-------5-----5-5-5-5-5-5-5-|
|-3--------0--------7--------7--7--7--7--7--7--7--8-------10-------5-----5-5-5-5-5-5-5-|
|-3--------0--------7--------7--7--7--7--7--7--7--8-------10-------5-----5-5-5-5-5-5-5-|
|PM..........................^..^..^..^..^..^..^.........................^.^.^.^.^.^.^.
|Guitar 4

|---------------------------------------------------------------------------------------|
|---------------------------------------------------------------------------------------|
|14-14-14-14-14-14-14-14-14-14-14-14-14-14-14-14-12-12-12-10-10-10-9-7-7—7-7-7-7-7-7-10-|
|---------------------------------------------------------------------------------------|
|12-12-12-12-12-12-12-12-12-12-12-12-12-12-12-12-10-10-10--8--8--8-7-5-5-5-5-5-5-5-5--8-|
|---------------------------------------------------------------------------------------|
|Guitar 3
|
|---------------------------------------------------------------------------------------|
|---------------------------------------------------------------------------------------|
|---------------------------------------------------------------------------------------|
|-3--------0--------7--------7--7--7--7--7--7--7--8-------10-------5-----5-5-5-5-5-5--5-|
|-3--------0--------7--------7--7--7--7--7--7--7--8-------10-------5-----5-5-5-5-5-5--5-|
|-3--------0--------7--------7--7--7--7--7--7--7--8-------10-------5-----5-5-5-5-5-5--5-|
|PM..........................^..^..^..^..^..^..^.........................^.^.^.^.^.^..^.
|Guitar 4

|------------------------------------------------------------------------|
|------------------------------------------------------------------------|
|10-7-7---7---7-10-10-7-7----7--7-12-12-9-9---9---9-12-12-9-9---9---9-10-|
|------------------------------------------------------------------------|
|-8-5-5---5---5--8--8-5-5----5--5-10-10-7-7---7---7-10-10-7-7---7---7--8-|
|------------------------------------------------------------------------|
|Guitar 3
|
|------------------------------------------------------------------------|
|------------------------------------------------------------------------|
|------------------------------------------------------------------------|
|-0-0-0-0-0-0-0--0--0-0-0-0-0-0-0--0--2-2-2-2-2-2-2--2--2-2-2-2-2-2-2--2-|
|-0-0-0-0-0-0-0--0--0-0-0-0-0-0-0--0--2-2-2-2-2-2-2--2--2-2-2-2-2-2-2--2-|
|-0-0-0-0-0-0-0--0--0-0-0-0-0-0-0--0--2-2-2-2-2-2-2--2--2-2-2-2-2-2-2--2-|
|Guitar 4

|------------------------------------------------------------------------------------|
|------------------------------------------------------------------------------------|
|10-7-7---7---7-10-10-7-7---7---7-12--9--9--9--9--9--9--9--9--9--9--9--9--9--9--9-10-|
|------------------------------------------------------------------------------------|
|-8-5-5---5---5--8--8-5-5---5---5-10--7--7--7--7--7--7--7--7--7--7--7--7--7--7--7--8-|
|------------------------------------------------------------------------------------|
|Guitar 3
|
|------------------------------------------------------------------------------------|
|------------------------------------------------------------------------------------|
|------------------------------------------------------------------------------------|
|-8-8-8-8-8-8-8--8--8-8-8-8-8-8-8--8-14-14-14-14-14-14-14-14-14-14-14-14-14-14-14-14-|
|-8-8-8-8-8-8-8--8--8-8-8-8-8-8-8--8-12-12-12-12-12-12-12-12-12-12-12-12-12-12-12-12-|
|-8-8-8-8-8-8-8--8--8-8-8-8-8-8-8--8-12-12-12-12-12-12-12-12-12-12-12-12-12-12-12-12-|
|Guitar 4
|------------------------------------------------------------------------|
|------------------------------------------------------------------------|
|10-7-7---7---7-10-10-7-7----7--7-12-12-9-9---9---9-12-12-9-9---9---9-10-|
|------------------------------------------------------------------------|
|-8-5-5---5---5--8--8-5-5----5--5-10-10-7-7---7---7-10-10-7-7---7---7--8-|
|------------------------------------------------------------------------|
|Guitar 3
|
|------------------------------------------------------------------------|
|------------------------------------------------------------------------|
|------------------------------------------------------------------------|
|-0-0-0-0-0-0-0--0--0-0-0-0-0-0-0--0--2-2-2-2-2-2-2--2--2-2-2-2-2-2-2--2-|
|-0-0-0-0-0-0-0--0--0-0-0-0-0-0-0--0--2-2-2-2-2-2-2--2--2-2-2-2-2-2-2--2-|
|-0-0-0-0-0-0-0--0--0-0-0-0-0-0-0--0--2-2-2-2-2-2-2--2--2-2-2-2-2-2-2--2-|
|Guitar 4

|------------------------------------------------------------------------------------|
|------------------------------------------------------------------------------------|
|10-7-7---7---7-10-10-7-7---7---7-12--9--9--9--9--9--9--9--9--9--9--9--9--9--9--9-10-|
|------------------------------------------------------------------------------------|
|-8-5-5---5---5--8--8-5-5---5---5-10--7--7--7--7--7--7--7--7--7--7--7--7--7--7--7--8-|
|------------------------------------------------------------------------------------|
|Guitar 3
|
|------------------------------------------------------------------------------------|
|------------------------------------------------------------------------------------|
|------------------------------------------------------------------------------------|
|-8-8-8-8-8-8-8--8--8-8-8-8-8-8-8--8-14-14-14-14-14-14-14-14-14-14-14-14-14-14-14-14-|
|-8-8-8-8-8-8-8--8--8-8-8-8-8-8-8--8-12-12-12-12-12-12-12-12-12-12-12-12-12-12-12-12-|
|-8-8-8-8-8-8-8--8--8-8-8-8-8-8-8--8-12-12-12-12-12-12-12-12-12-12-12-12-12-12-12-12-|
|Guitar 4

|------------------------------------------------------------------------|
|------------------------------------------------------------------------|
|10-7-7---7---7-10-10-7-7----7--7-12-12-9-9---9---9-12-12-9-9---9---9-10-|
|------------------------------------------------------------------------|
|-8-5-5---5---5--8--8-5-5----5--5-10-10-7-7---7---7-10-10-7-7---7---7--8-|
|------------------------------------------------------------------------|
|Guitar 3
|
|------------------------------------------------------------------------|
|------------------------------------------------------------------------|
|------------------------------------------------------------------------|
|-0-0-0-0-0-0-0--0--0-0-0-0-0-0-0--0--2-2-2-2-2-2-2--2--2-2-2-2-2-2-2--2-|
|-0-0-0-0-0-0-0--0--0-0-0-0-0-0-0--0--2-2-2-2-2-2-2--2--2-2-2-2-2-2-2--2-|
|-0-0-0-0-0-0-0--0--0-0-0-0-0-0-0--0--2-2-2-2-2-2-2--2--2-2-2-2-2-2-2--2-|
|Guitar 4

|------------------------------------------------------------------------------------|
|------------------------------------------------------------------------------------|
|10-7-7---7---7-10-10-7-7---7---7-12--9--9--9--9--9--9--9--9--9--9--9--9--9--9--9-10-|
|------------------------------------------------------------------------------------|
|-8-5-5---5---5--8--8-5-5---5---5-10--7--7--7--7--7--7--7--7--7--7--7--7--7--7--7--8-|
|------------------------------------------------------------------------------------|
|Guitar 3
|
|------------------------------------------------------------------------------------|
|------------------------------------------------------------------------------------|
|------------------------------------------------------------------------------------|
|-8-8-8-8-8-8-8--8--8-8-8-8-8-8-8--8-14-14-14-14-14-14-14-14-14-14-14-14-14-14-14-14-|
|-8-8-8-8-8-8-8--8--8-8-8-8-8-8-8--8-12-12-12-12-12-12-12-12-12-12-12-12-12-12-12-12-|
|-8-8-8-8-8-8-8--8--8-8-8-8-8-8-8--8-12-12-12-12-12-12-12-12-12-12-12-12-12-12-12-12-|
|Guitar 4

|------------------------------------------------------------------------|
|------------------------------------------------------------------------|
|10-7-7---7---7-10-10-7-7----7--7-12-12-9-9---9---9-12-12-9-9---9---9-10-|
|------------------------------------------------------------------------|
|-8-5-5---5---5--8--8-5-5----5--5-10-10-7-7---7---7-10-10-7-7---7---7--8-|
|------------------------------------------------------------------------|
|Guitar 3
|
|------------------------------------------------------------------------|
|------------------------------------------------------------------------|
|------------------------------------------------------------------------|
|-0-0-0-0-0-0-0--0--0-0-0-0-0-0-0--0--2-2-2-2-2-2-2--2--2-2-2-2-2-2-2--2-|
|-0-0-0-0-0-0-0--0--0-0-0-0-0-0-0--0--2-2-2-2-2-2-2--2--2-2-2-2-2-2-2--2-|
|-0-0-0-0-0-0-0--0--0-0-0-0-0-0-0--0--2-2-2-2-2-2-2--2--2-2-2-2-2-2-2--2-|
|Guitar 4

|------------------------------------------------------------------------------------|
|------------------------------------------------------------------------------------|
|10-7-7---7---7-10-10-7-7---7---7-12--9--9--9--9--9--9--9--9--9--9--9--9--9--9--9--9-|
|------------------------------------------------------------------------------------|
|-8-5-5---5---5--8--8-5-5---5---5-10--7--7--7--7--7--7--7--7--7--7--7--7--7--7--7--7-|
|------------------------------------------------------------------------------------|
|Guitar 3
|
|------------------------------------------------------------------------------------|
|------------------------------------------------------------------------------------|
|------------------------------------------------------------------------------------|
|-8-8-8-8-8-8-8--8--8-8-8-8-8-8-8--8-14-14-14-14-14-14-14-14-14-14-14-14-14-14-14-14-|
|-8-8-8-8-8-8-8--8--8-8-8-8-8-8-8--8-12-12-12-12-12-12-12-12-12-12-12-12-12-12-12-12-|
|-8-8-8-8-8-8-8--8--8-8-8-8-8-8-8--8-12-12-12-12-12-12-12-12-12-12-12-12-12-12-12-12-|
|Guitar 4

|--------------------------------------------------------------------------|
|--------------------------------------------------------------------------|
|15-------15--------15-----15----------15-------15--------15-----15--------|
|12-------12--------12-----12----------12-------12--------12-----12--------|
|---0-0---------0-0----0-0----------------0-0---------0-0----0-0-----------|
|---0-0---------0-0----0-0----------------0-0---------0-0----0-0-----------|
|Guitar 3 & 4

|--------------------------------------------------------------------------|
|--------------------------------------------------------------------------|
|10-------10--------10-----10----------12-------12--------12-----13---13---|
|-7--------7---------7------7----------10-------10--------10-----10---10---|
|---0-0---------0-0----0-0----------------0-0---------0-0----0-0-----------|
|---0-0---------0-0----0-0----------------0-0---------0-0----0-0-----------|
|Guitar 3 & 4

|--------------------------------------------------------------------------|
|--------------------------------------------------------------------------|
|15-------15--------15-----15----------15-------15--------15-----15--------|
|12-------12--------12-----12----------12-------12--------12-----12--------|
|---0-0---------0-0----0-0----------------0-0---------0-0----0-0-----------|
|---0-0---------0-0----0-0----------------0-0---------0-0----0-0-----------|
|Guitar 3 & 4

|--------------------------------------------------------------------------|
|--------------------------------------------------------------------------|
|10-------10--------10-----10----------12-------12--------12-----13---13---|
|-7--------7---------7------7----------10-------10--------10-----10---10---|
|---0-0---------0-0----0-0----------------0-0---------0-0----0-0-----------|
|---0-0---------0-0----0-0----------------0-0---------0-0----0-0-----------|
|Guitar 3 & 4

|------------------------------------------------------------------------------------------------|
|------------------------------------------------------------------------------------------------|
|---------------------------------------------12-12-12-12-------------12-12-12-12----------------|
|15-15-15-12-12-12-12-15-15-15-15-12-12-12-12-------------14-14-14-14-------------14-14-14-14-15-|
|------------------------------------------------------------------------------------------------|
|------------------------------------------------------------------------------------------------|
|Guitar 1
|
|------------------------------------------------------------------------------------------------|
|------------------------------------------------------------------------------------------------|
|------------------------------------------------------------------------------------------------|
|-0~---------------------------------------------------------------------------------------------|
|-0~---------------------------------------------------------------------------------------------|
|-0~---------------------------------------------------------------------------------------------|
|Guitar 4 Feedback and other pinchshifting stuff going on in here.

|------------------------------------------------------------------------------------------------|
|------------------------------------------------------------------------------------------------|
|------------------------------------------------------------------------------------------------|
|15-15-15-12-12-12-12-15-15-15-15-12-12-12-12-14-14-14-14-11-11-11-11-14-14-14-14-11-11-11-11-15-|
|------------------------------------------------------------------------------------------------|
|------------------------------------------------------------------------------------------------|
|Guitar 1
|
|------------------------------------------------------------------------------------------------|
|------------------------------------------------------------------------------------------------|
|------------------------------------------------------------------------------------------------|
|(0~)--------------------------------------------------------------------------------------------|
|(0~)--------------------------------------------------------------------------------------------|
|(0~)--------------------------------------------------------------------------------------------|
|Guitar 4 Feedback and other pinchshifting stuff going on in here.

|------------------------------------------------------------------------------------------------|
|------------------------------------------------------------------------------------------------|
|---------------------------------------------12-12-12-12-------------12-12-12-12----------------|
|15-15-15-12-12-12-12-15-15-15-15-12-12-12-12-------------14-14-14-14-------------14-14-14-14-15-|
|------------------------------------------------------------------------------------------------|
|------------------------------------------------------------------------------------------------|
|Guitar 1
|
|------------------------------------------------------------------------------------------------|
|------------------------------------------------------------------------------------------------|
|------------------------------------------------------------------------------------------------|
|(0~)--------------------------------------------------------------------------------------------|
|(0~)--------------------------------------------------------------------------------------------|
|(0~)--------------------------------------------------------------------------------------------|
|Guitar 4 Feedback and other pinchshifting stuff going on in here.

|------------------------------------------------------------------------------------------------|
|------------------------------------------------------------------------------------------------|
|------------------------------------------------------------------------------------------------|
|15-15-15-12-12-12-12-15-15-15-15-12-12-12-12-14-14-14-14-11-11-11-11-14-14-14-14-11-11-11-11-15-|
|------------------------------------------------------------------------------------------------|
|------------------------------------------------------------------------------------------------|
|Guitar 1
|
|------------------------------------------------------------------------------------------------|
|------------------------------------------------------------------------------------------------|
|------------------------------------------------------------------------------------------------|
|(0~)--------------------------------------------------------------------------------------------|
|(0~)--------------------------------------------------------------------------------------------|
|(0~)--------------------------------------------------------------------------------------------|
|Guitar 4 Feedback and other pinchshifting stuff going on in here.

|------------------------------------------------------------------------------------------------|
|------------------------------------------------------------------------------------------------|
|---------------------------------------------12-12-12-12-------------12-12-12-12----------------|
|15-15-15-12-12-12-12-15-15-15-15-12-12-12-12-------------14-14-14-14-------------14-14-14-14-15-|
|------------------------------------------------------------------------------------------------|
|------------------------------------------------------------------------------------------------|
|Guitar 1
|
|------------------------------------------------------------------------------------------------|
|------------------------------------------------------------------------------------------------|
|------------------------------------------------------------------------------------------------|
|-0~----------------------------------------------2~---------------------------------------------|
|-0~----------------------------------------------2~---------------------------------------------|
|-0~----------------------------------------------2~---------------------------------------------|
|Guitar 4

|------------------------------------------------------------------------------------------------|
|------------------------------------------------------------------------------------------------|
|------------------------------------------------------------------------------------------------|
|15-15-15-12-12-12-12-15-15-15-15-12-12-12-12-14-14-14-14-11-11-11-11-14-14-14-14-11-11-11-11-15-|
|------------------------------------------------------------------------------------------------|
|------------------------------------------------------------------------------------------------|
|Guitar 1
|
|------------------------------------------------------------------------------------------------|
|------------------------------------------------------------------------------------------------|
|------------------------------------------------------------------------------------------------|
|-8~---------------------------------------------14~---------------------------------------------|
|-8~---------------------------------------------12~---------------------------------------------|
|-8~---------------------------------------------12~---------------------------------------------|
|Guitar 4 Feedback and other pinchshifting stuff going on in here.

|------------------------------------------------------------------------------------------------|
|------------------------------------------------------------------------------------------------|
|---------------------------------------------12-12-12-12-------------12-12-12-12----------------|
|15-15-15-12-12-12-12-15-15-15-15-12-12-12-12-------------14-14-14-14-------------14-14-14-14-15-|
|------------------------------------------------------------------------------------------------|
|------------------------------------------------------------------------------------------------|
|Guitar 1
|
|------------------------------------------------------------------------------------------------|
|------------------------------------------------------------------------------------------------|
|------------------------------------------------------------------------------------------------|
|-0--0--0--0--0--0--0--0--0--0--0--0--0--0--0--0--2--2--2--2--2--2--2--2--2--2--2--2--2--2--2--2-|
|-0--0--0--0--0--0--0--0--0--0--0--0--0--0--0--0--2--2--2--2--2--2--2--2--2--2--2--2--2--2--2--2-|
|-0--0--0--0--0--0--0--0--0--0--0--0--0--0--0--0--2--2--2--2--2--2--2--2--2--2--2--2--2--2--2--2-|
|PM..^..^..^..^..^..^..^..^..^..^..^..^..^..^..^..^..^..^..^..^..^..^..^..^..^..^..^..^..^..^..^.|
|Guitar 4


|------------------------------------------------------------------------------------------------|
|------------------------------------------------------------------------------------------------|
|------------------------------------------------------------------------------------------------|
|15-15-15-12-12-12-12-15-15-15-15-12-12-12-12-14-14-14-14-11-11-11-11-14-14-14-14-11-11-11-11-15-|
|------------------------------------------------------------------------------------------------|
|------------------------------------------------------------------------------------------------|
|Guitar 1
|
|------------------------------------------------------------------------------------------------|
|------------------------------------------------------------------------------------------------|
|------------------------------------------------------------------------------------------------|
|-8--8--8--8--8--8--8--8--8--8--8--8--8--8--8--8-14-14-14-14-14-14-14-14-14-14-14-14-14-14-14-14-|
|-8--8--8--8--8--8--8--8--8--8--8--8--8--8--8--8-12-12-12-12-12-12-12-12-12-12-12-12-12-12-12-12-|
|-8--8--8--8--8--8--8--8--8--8--8--8--8--8--8--8-12-12-12-12-12-12-12-12-12-12-12-12-12-12-12-12-|
|PM..^..^..^..^..^..^..^..^..^..^..^..^..^..^..^..^..^..^..^..^..^..^..^..^..^..^..^..^..^..^..^.|
|Guitar 4                                        Slightly release your palm

|------------------------------------------------------------------------|
|------------------------------------------------------------------------|
|10-7-7---7---7-10-10-7-7----7--7-12-12-9-9---9---9-12-12-9-9---9---9-10-|
|------------------------------------------------------------------------|
|-8-5-5---5---5--8--8-5-5----5--5-10-10-7-7---7---7-10-10-7-7---7---7--8-|
|------------------------------------------------------------------------|
|Guitar 3
|
|------------------------------------------------------------------------|
|------------------------------------------------------------------------|
|------------------------------------------------------------------------|
|-0-0-0-0-0-0-0--0--0-0-0-0-0-0-0--0--2-2-2-2-2-2-2--2--2-2-2-2-2-2-2--2-|
|-0-0-0-0-0-0-0--0--0-0-0-0-0-0-0--0--2-2-2-2-2-2-2--2--2-2-2-2-2-2-2--2-|
|-0-0-0-0-0-0-0--0--0-0-0-0-0-0-0--0--2-2-2-2-2-2-2--2--2-2-2-2-2-2-2--2-|
|Guitar 4

|------------------------------------------------------------------------------------|
|------------------------------------------------------------------------------------|
|10-7-7---7---7-10-10-7-7---7---7-12--9--9--9--9--9--9--9--9--9--9--9--9--9--9--9-10-|
|------------------------------------------------------------------------------------|
|-8-5-5---5---5--8--8-5-5---5---5-10--7--7--7--7--7--7--7--7--7--7--7--7--7--7--7--8-|
|------------------------------------------------------------------------------------|
|Guitar 3
|
|------------------------------------------------------------------------------------|
|------------------------------------------------------------------------------------|
|------------------------------------------------------------------------------------|
|-8-8-8-8-8-8-8--8--8-8-8-8-8-8-8--8-14-14-14-14-14-14-14-14-14-14-14-14-14-14-14-14-|
|-8-8-8-8-8-8-8--8--8-8-8-8-8-8-8--8-12-12-12-12-12-12-12-12-12-12-12-12-12-12-12-12-|
|-8-8-8-8-8-8-8--8--8-8-8-8-8-8-8--8-12-12-12-12-12-12-12-12-12-12-12-12-12-12-12-12-|
|Guitar 4

|------------------------------------------------------------------------|
|------------------------------------------------------------------------|
|10-7-7---7---7-10-10-7-7----7--7-12-12-9-9---9---9-12-12-9-9---9---9-10-|
|------------------------------------------------------------------------|
|-8-5-5---5---5--8--8-5-5----5--5-10-10-7-7---7---7-10-10-7-7---7---7--8-|
|------------------------------------------------------------------------|
|Guitar 3
|
|------------------------------------------------------------------------|
|------------------------------------------------------------------------|
|------------------------------------------------------------------------|
|-0-0-0-0-0-0-0--0--0-0-0-0-0-0-0--0--2-2-2-2-2-2-2--2--2-2-2-2-2-2-2--2-|
|-0-0-0-0-0-0-0--0--0-0-0-0-0-0-0--0--2-2-2-2-2-2-2--2--2-2-2-2-2-2-2--2-|
|-0-0-0-0-0-0-0--0--0-0-0-0-0-0-0--0--2-2-2-2-2-2-2--2--2-2-2-2-2-2-2--2-|
|Guitar 4

|------------------------------------------------------------------------------------|
|------------------------------------------------------------------------------------|
|10-7-7---7---7-10-10-7-7---7---7-12--9--9--9--9--9--9--9--9--9--9--9--9--9--9--9-10-|
|------------------------------------------------------------------------------------|
|-8-5-5---5---5--8--8-5-5---5---5-10--7--7--7--7--7--7--7--7--7--7--7--7--7--7--7--8-|
|------------------------------------------------------------------------------------|
|Guitar 3
|
|------------------------------------------------------------------------------------|
|------------------------------------------------------------------------------------|
|------------------------------------------------------------------------------------|
|-8-8-8-8-8-8-8--8--8-8-8-8-8-8-8--8-14-14-14-14-14-14-14-14-14-14-14-14-14-14-14-14-|
|-8-8-8-8-8-8-8--8--8-8-8-8-8-8-8--8-12-12-12-12-12-12-12-12-12-12-12-12-12-12-12-12-|
|-8-8-8-8-8-8-8--8--8-8-8-8-8-8-8--8-12-12-12-12-12-12-12-12-12-12-12-12-12-12-12-12-|
|Guitar 4


|------------------------------------------------------------------------|
|------------------------------------------------------------------------|
|10-7-7---7---7-10-10-7-7----7--7-12-12-9-9---9---9-12-12-9-9---9---9-10-|
|------------------------------------------------------------------------|
|-8-5-5---5---5--8--8-5-5----5--5-10-10-7-7---7---7-10-10-7-7---7---7--8-|
|------------------------------------------------------------------------|
|Guitar 3
|
|------------------------------------------------------------------------|
|------------------------------------------------------------------------|
|------------------------------------------------------------------------|
|-0-0-0-0-0-0-0--0--0-0-0-0-0-0-0--0--2-2-2-2-2-2-2--2--2-2-2-2-2-2-2--2-|
|-0-0-0-0-0-0-0--0--0-0-0-0-0-0-0--0--2-2-2-2-2-2-2--2--2-2-2-2-2-2-2--2-|
|-0-0-0-0-0-0-0--0--0-0-0-0-0-0-0--0--2-2-2-2-2-2-2--2--2-2-2-2-2-2-2--2-|
|Guitar 4

|------------------------------------------------------------------------------------|
|------------------------------------------------------------------------------------|
|10-7-7---7---7-10-10-7-7---7---7-12--9--9--9--9--9--9--9--9--9--9--9--9--9--9--9-10-|
|------------------------------------------------------------------------------------|
|-8-5-5---5---5--8--8-5-5---5---5-10--7--7--7--7--7--7--7--7--7--7--7--7--7--7--7--8-|
|------------------------------------------------------------------------------------|
|Guitar 3
|
|------------------------------------------------------------------------------------|
|------------------------------------------------------------------------------------|
|------------------------------------------------------------------------------------|
|-8-8-8-8-8-8-8--8--8-8-8-8-8-8-8--8-14-14-14-14-14-14-14-14-14-14-14-14-14-14-14-14-|
|-8-8-8-8-8-8-8--8--8-8-8-8-8-8-8--8-12-12-12-12-12-12-12-12-12-12-12-12-12-12-12-12-|
|-8-8-8-8-8-8-8--8--8-8-8-8-8-8-8--8-12-12-12-12-12-12-12-12-12-12-12-12-12-12-12-12-|
|Guitar 4

|------------------------------------------------------------------------|
|------------------------------------------------------------------------|
|10-7-7---7---7-10-10-7-7----7--7-12-12-9-9---9---9-12-12-9-9---9---9-10-|
|------------------------------------------------------------------------|
|-8-5-5---5---5--8--8-5-5----5--5-10-10-7-7---7---7-10-10-7-7---7---7--8-|
|------------------------------------------------------------------------|
|Guitar 3
|
|------------------------------------------------------------------------|
|------------------------------------------------------------------------|
|------------------------------------------------------------------------|
|-0-0-0-0-0-0-0--0--0-0-0-0-0-0-0--0--2-2-2-2-2-2-2--2--2-2-2-2-2-2-2--2-|
|-0-0-0-0-0-0-0--0--0-0-0-0-0-0-0--0--2-2-2-2-2-2-2--2--2-2-2-2-2-2-2--2-|
|-0-0-0-0-0-0-0--0--0-0-0-0-0-0-0--0--2-2-2-2-2-2-2--2--2-2-2-2-2-2-2--2-|
|Guitar 4

|------------------------------------------------------------------------------------|
|------------------------------------------------------------------------------------|
|10-7-7---7---7-10-10-7-7---7---7-12--9--9--9--9--9--9--9--9--9--9--9--9--9--9--9--9-|
|------------------------------------------------------------------------------------|
|-8-5-5---5---5--8--8-5-5---5---5-10--7--7--7--7--7--7--7--7--7--7--7--7--7--7--7--7-|
|------------------------------------------------------------------------------------|
|Guitar 3
|
|------------------------------------------------------------------------------------|
|------------------------------------------------------------------------------------|
|------------------------------------------------------------------------------------|
|-8-8-8-8-8-8-8--8--8-8-8-8-8-8-8--8-14-14-14-14-14-14-14-14-14-14-14-14-14-14-14-14-|
|-8-8-8-8-8-8-8--8--8-8-8-8-8-8-8--8-12-12-12-12-12-12-12-12-12-12-12-12-12-12-12-12-|
|-8-8-8-8-8-8-8--8--8-8-8-8-8-8-8--8-12-12-12-12-12-12-12-12-12-12-12-12-12-12-12-12-|
|Guitar 4

|-----------------------------------------------------------|
|-----------------------------------------------------------|
|-----------------------------------------------------------|
|-----------------------------------------------------------|
|-----------------------------------------------------------|
|-----------------------------------------------------------|
|Guitar 3  Feedback and other pitchshifting stuff and noise |
|
|-----------------------------------------------------------|
|-----------------------------------------------------------|
|-----------------------------------------------------------|
|-0~--------------------------------------------------------|
|-0~--------------------------------------------------------|
|-0~--------------------------------------------------------|
|Guitar 4  Feedback and other pitchshifting stuff and noise |
comments
We did not receive enough feedback on this tab! Please rate:
print report bad tab
1 2 3 4 5
4 comments total. Showing first comments.
0 reply
hyperliteBo wrote on October 29 2011, 02:28 pm

Steak Number eight has 2 guitarists and 1 bassplayer, how the hell can this tab be for 4 guitars?

0 reply
brechteke wrote on October 30 2011, 06:34 am

I took an other guitar for every diffrent effect that is used. The maximum amount of guitars playing at the same time is 2.

0 reply
hyperliteBo wrote on October 30 2011, 02:44 pm

Ow ok I understand :p
I uploaded u guitar pro file of the song "dickhead" yesterday, waiting for it to be approved.

I want to post or [tab]
guest
You may want to rate the tab now too:
select rating
Please do not post tabs as comments. Select "correction" instead!