Oops, an error
Loading. Please wait.

Death To All But Metal Bass Tab

ver3
ver3

Whole song

More versions @911Tabs.com
477 views 3 this week
no commentswrite comment
1 2 3 4 5
worth learning
x 5
add to favorites launch autoscroll
font size
0
reset
Autoscroll
+/-
esc
set tempo
stop
Contributor
Tuning
D# G# C# F# A# D#
WARNING: You are trying to view
                                    content from Ultimate-Guitar.com
                                    in an unauthorized application,
                                    which is prohibited.

                                    Please use an official Ultimate
                                    Guitar Tabs application for iPhone,
                                    iPad or Android to access legitimate
                                    chords, guitar, bass, and drum tabs
                                    from Ultimate-Guitar.com database.

                                    Type "ultimate guitar tabs" in Apple
                                    App Store's or Android Market's
                                    search to find the application.
-------------------------------------------------------------------------------
                   DEATH TO ALL BUT METAL - Steel Panther
-------------------------------------------------------------------------------
Tabbed by: Emilym80
E-mail: emilym80@hotmail.com

Tuning: Half-step down

Here's my bass tab for "Death to All But Metal" by Steel Panther off their album, "Feel 
the Steel". The bass is played by Lexxi Foxxx.

Intro:
G|-------------------|
D|-------------------|
A|-7p0--7p0----------|
E|-------------------|
Only hold the 7th fret for a split second, the pulloff is very quick.

Main riff/Verse
G|--------------------------------------------------------------------------|
D|-------------------------------------------------2------------------------|
A|-------0-1-0---------0-1-0---------0-1-0---0-1-2---1-0--------------------|
E|-0-0-3-------3-0-0-3-------3-0-0-3-------3-------------3------------------|

Pre-chorus A
G|---------------|
D|---------------|
A|------3--5-----|
E|-0--3----------|

Chorus
G|---------------------------------------------|
D|---------------7-----7-----7----7------------|
A|-6-6-5-3--0000--0000--0000--0000-------------|
E|---------------------------------------------|

Pre-verse
G|----------|
D|----------|
A|-6-6-5-3--|
E|----------|

Pre-chorus B
G|-----------------------------------|
D|-----------------------------------|
A|-7-5---5----------7-5---5----------|
E|-----7---7-6-5-3------7---7-6-5-3--|

Bridge
G|----------------------------|
D|----------------------------|
A|------------------3---6-5---|
E|-2--2--2--2--2--2---3-------|

Solo
G|----------------------------------------------------------|
D|-------------------------------------------------7--------|
A|-----3-5-6-5-3-----3-5-6-5-3-----3-5-6-5-3-5-6-7---6-5-3--|
E|-5-5-----------5-5-----------5-5--------------------------|

Outro
G|------------|
D|-00-0-------|
A|------0-----|
E|------------|

Song Structure:
Intro X1
Main riff X4
Pre-chorus A X1
Chorus X2
Pre-verse X1
Main riff X2
Pre-chorus A X1
Pre-chorus B X1
Chorus X2
Pre-verse X1
Bridge X1
Solo X2
Main riff X2
Pre-chorus A X1
Chorus X2
Outro X1

Enjoy!



| /  slide up
| \  slide down
| h  hammer-on
| p  pull-off
| ~  vibrato
| +  harmonic
| x  Mute note
===============================================================================
comments
print report bad tab
I want to post or [tab]
guest
You may want to rate the tab now too:
select rating
Please do not post tabs as comments. Select "correction" instead!