Oops, an error
Loading. Please wait.

Hells On Fire Tab

ver2
ver2

Intro

Whole song

Interactive

More versions @911Tabs.com
554 views 3 this week
no commentswrite comment
1 2 3 4 5
please rate
Autoscroll
+/-
esc
set tempo
stop
Contributor
Difficulty
Tuning
intermediate
D# G# C# F# A# D#
Hey! There's an official Ultimate Guitar app which is ideal
for learning songs when you're away from computer. Get the app
WARNING: You are trying to view
                                    content from Ultimate-Guitar.com
                                    in an unauthorized application,
                                    which is prohibited.

                                    Please use an official Ultimate
                                    Guitar Tabs application for iPhone,
                                    iPad or Android to access legitimate
                                    chords, guitar, bass, and drum tabs
                                    from Ultimate-Guitar.com database.

                                    Type "ultimate guitar tabs" in Apple
                                    App Store's or Android Market's
                                    search to find the application.
-----------------------------------------------------------------------------
                                  
                Hell's On Fire - Steel Panther (GUITAR)

            
-----------------------------------------------------------------------------
Tabbed by: Scotto10

Tuning: down one half step

=============================================================================

Guitar 1 - rhythm



             E  E  E  E  E  E  E  E     E  E  E  E  Q    Q     
E||-------|--------------------------|------------------------|
B||-------|--------------------------|------------------------|
G||-------|--------------------------|--------------2----4----|
D||-------|--------------------------|--------------2----4----|
A||-------|--2--4-----2--4-----2--4--|-----2--4-----0----2----|
E||-------|--0--2-----0--2-----0--2--|-----0--2---------------|


  E  E  E  E  E  E  E  E     E  E  E  E  Q    Q       E  E  E  E  E  E  E  E   
--------------------------|------------------------|--------------------------|
--------------------------|------------------------|--------------------------|
--------------------------|--------------4----2----|--------------------------|
--------------------------|--------------4----2----|--------------------------|
--2--4-----2--4-----2--4--|-----2--4-----2----0----|--2--4-----2--4-----2--4--|
--0--2-----0--2-----0--2--|-----0--2---------------|--0--2-----0--2-----0--2--|


  E  E  E  E  Q    Q       W                   H        Q    Q     
------------------------|-------------------|---------------------|
------------------------|-------------------|---------------------|
--------------2----4----|--7----------------|--L--------2---------|
--------------2----4----|--7----------------|--L--------2----2----|
-----2--4-----0----2----|--5----------------|--L--------0----2----|
-----0--2---------------|-------------------|----------------0----|


  H.           E  E     H.           E  E     H.           E  E   
---------------------|---------------------|---------------------|
---------------------|---------------------|---------------------|
--6------------L--4--|--L------------L--2--|--L------------L--4--|
--4------------L--2--|--L------------L--0--|--L------------L--2--|
---------------------|---------------------|---------------------|
---------------------|---------------------|---------------------|


  H.           E  E     H.           E  E     H.           E  E   
---------------------|---------------------|---------------------|
---------------------|---------------------|---------------------|
--L------------L--6--|--L------------L--4--|--L------------L--2--|
--L------------L--4--|--L------------L--2--|--L------------L--0--|
---------------------|---------------------|---------------------|
---------------------|---------------------|---------------------|


  H.           E  E     H.           E  E     H.           E  E   
---------------------|---------------------|------------------5--|
---------------------|---------------------|------------------5--|
--L------------L--4--|--L------------L--6--|--L------------L--2--|
--L------------L--2--|--L------------L--4--|--L------------L-----|
---------------------|---------------------|---------------------|
---------------------|---------------------|---------------------|


  H.           E  E     H.           E   E      H.            E  E   
--L------------L--7--|--L------------L--10--|---L-------------L-----|
--L------------L--7--|--L------------L--10--|---L-------------L-----|
--L------------L--4--|--L------------L---7--|---L-------------L--6--|
---------------------|----------------------|--------------------4--|
---------------------|----------------------|-----------------------|
---------------------|----------------------|-----------------------|


  H.           E  E     H.           E  E     H.           Q     
---------------------|---------------------|--------------------|
---------------------|---------------------|--------------------|
--L------------L--4--|--L------------L--2--|--L------------L----|
--L------------L--2--|--L------------L--0--|--L------------L----|
---------------------|---------------------|--------------------|
---------------------|---------------------|--------------------|


  PM PM PM PM PM PM PM PM    PM PM PM PM PM PM PM PM                      
  E  E  E  E  E  E  E  E     E  E  E  E  E  E  E  E     W                 
--------------------------|--------------------------|-------------------|
--------------------------|--------------------------|-------------------|
--6--6--6--6--6--6--6--6--|--6--6--6--6--6--6--6--6--|-------------------|
--6--6--6--6--6--6--6--6--|--6--6--6--6--6--6--6--6--|--4----------------|
--4--4--4--4--4--4--4--4--|--4--4--4--4--4--4--4--4--|--4----------------|
--------------------------|--------------------------|--2----------------|


  W                   E  E  E  E  E  E  E  E     E  E  E  E  Q    Q     
-------------------|--------------------------|------------------------|
-------------------|--------------------------|------------------------|
-------------------|--------------------------|------------------------|
--2----------------|--2--4-----2--4-----2--4--|-----2--4-----2---------|
--2----------------|--0--2-----0--2-----0--2--|-----0--2-----0----2----|
--0----------------|--------------------------|-------------------0----|


  W                   W                   E  E  E  E  E  E  E  E   
-------------------|-------------------|--------------------------|
-------------------|-------------------|--------------------------|
-------------------|-------------------|--------------------------|
--4----------------|--2----------------|--2--4-----2--4-----2--4--|
--4----------------|--2----------------|--0--2-----0--2-----0--2--|
--2----------------|--0----------------|--------------------------|


  E  E  E  E  Q    Q       E  E  E  E  E  E  E  E     E  E  E  E  Q    Q     
------------------------|--------------------------|------------------------|
------------------------|--------------------------|------------------------|
------------------------|--------------------------|--------------2----4----|
-----2--4-----2---------|--------------------------|--------------2----4----|
-----0--2-----0----2----|--2--4-----2--4-----2--4--|-----2--4-----0----2----|
-------------------0----|--0--2-----0--2-----0--2--|-----0--2---------------|


  E  E  E  E  E  E  E  E     E  E  E  E  H           H        Q    Q     
--------------------------|-----------------------|---------------------|
--------------------------|-----------------------|---------------------|
--------------------------|--------------7--------|--L--------2---------|
--------------------------|--------------7--------|--L--------2----2----|
--2--4-----2--4-----2--4--|-----2--4-----5--------|--L--------0----2----|
--0--2-----0--2-----0--2--|-----0--2--------------|----------------0----|


  H.           E  E     H.           E  E     H.           E  E   
---------------------|---------------------|---------------------|
---------------------|---------------------|---------------------|
--6------------L--4--|--L------------L--2--|--L------------L--4--|
--4------------L--2--|--L------------L--0--|--L------------L--2--|
---------------------|---------------------|---------------------|
---------------------|---------------------|---------------------|


  H.           E  E     H.           E  E     H.           E  E   
---------------------|---------------------|---------------------|
---------------------|---------------------|---------------------|
--L------------L--6--|--L------------L--4--|--L------------L--2--|
--L------------L--4--|--L------------L--2--|--L------------L--0--|
---------------------|---------------------|---------------------|
---------------------|---------------------|---------------------|


                       PM PM PM PM PM PM PM PM    PM PM PM PM PM PM PM PM  
  H.           Q       E  E  E  E  E  E  E  E     E  E  E  E  E  E  E  E   
--------------------|--------------------------|--------------------------|
--------------------|--------------------------|--------------------------|
--L------------L----|--6--6--6--6--6--6--6--6--|--6--6--6--6--6--6--6--6--|
--L------------L----|--6--6--6--6--6--6--6--6--|--6--6--6--6--6--6--6--6--|
--------------------|--4--4--4--4--4--4--4--4--|--4--4--4--4--4--4--4--4--|
--------------------|--------------------------|--------------------------|


  W                   W                   E  E  E  E  E  E  E  E   
-------------------|-------------------|--------------------------|
-------------------|-------------------|--------------------------|
-------------------|-------------------|--------------------------|
--4----------------|--2----------------|--2--4-----2--4-----2--4--|
--4----------------|--2----------------|--0--2-----0--2-----0--2--|
--2----------------|--0----------------|--------------------------|


  E  E  E  E  Q    Q       W                   W                 
------------------------|-------------------|-------------------|
------------------------|-------------------|-------------------|
------------------------|-------------------|-------------------|
-----2--4-----2---------|--4----------------|--2----------------|
-----0--2-----0----2----|--4----------------|--2----------------|
-------------------0----|--2----------------|--0----------------|


  E  E  E  E  E  E  E  E     E  E  E  E  E  E  E  E     H.           E  E   
--------------------------|--------------------------|---------------------|
--------------------------|--------------------------|------------------5--|
--------------------------|-----------------------6--|--L------------L--4--|
--2--4-----2--4-----2--4--|-----2--4-----2--2--2--6--|--L------------L--2--|
--0--2-----0--2-----0--2--|-----0--2-----0--0--0--4--|--L------------L-----|
--------------------------|--------------------------|---------------------|


  H.           E  E     H.           E  E     H.           E  E   
---------------------|---------------------|---------------------|
--L------------L--7--|--L------------L--5--|--L------------L-----|
--L------------L--6--|--L------------L--4--|--L------------L--6--|
--L------------L--4--|--L------------L--2--|--L------------L--6--|
---------------------|---------------------|------------------4--|
---------------------|---------------------|---------------------|


  H.           E  E     H.           E  E     H.           E  E   
---------------------|---------------------|---------------------|
------------------5--|--L------------L--7--|--L------------L-----|
--L------------L--4--|--L------------L--6--|--L------------L--7--|
--L------------L--2--|--L------------L--4--|--L------------L--7--|
--L------------L-----|---------------------|------------------5--|
---------------------|---------------------|---------------------|


  Q.     H        E     H.           E  E     H.           E  E   
---------------------|---------------------|---------------------|
---------------------|---------------------|---------------------|
--L------------------|--6------------L--4--|--L------------L--2--|
--L------9--------L--|--4------------L--2--|--L------------L--0--|
--L------7--------L--|---------------------|---------------------|
---------0--------L--|---------------------|---------------------|


  H.           E  E     H.           E  E     H.           E  E   
---------------------|---------------------|---------------------|
---------------------|---------------------|---------------------|
--L------------L--4--|--L------------L--6--|--L------------L--4--|
--L------------L--2--|--L------------L--4--|--L------------L--2--|
---------------------|---------------------|---------------------|
---------------------|---------------------|---------------------|


  H.           E  E     E  E  E  E  E  E  E  E     E  E  E  E  E  E  E  E   
---------------------|--------------------------|--------------------------|
---------------------|--------------------------|--------------------------|
--L------------L--2--|--------------------------|--------------------------|
--L------------L--0--|--4--4--4--2--2--2--0--0--|--0-----------------------|
---------------------|--------------------------|-----4--4--4--2--2--2--0--|
---------------------|--------------------------|--------------------------|


  E  E  E  E  E  E  E  E     W                   W                 
--------------------------|-------------------|-------------------|
--------------------------|-------------------|-------------------|
--------------------------|-------------------|-------------------|
--------------------------|-------------------|-------------------|
--0--0--------------------|-------------------|-------------------|
--------4--4--4--0--0--0--|--2----------------|--2----------------|


  H        H           H        H           E  E  E  E  E  E  E  E   
--------------------|--------------------|--------------------------|
--------------------|--------------------|--------------------------|
--------------------|--------------------|--------------------------|
--2--------4--------|--2-----------------|--------------------------|
--0--------2--------|--0--------2--------|--2--4-----2--4-----2--4--|
--------------------|-----------0--------|--0--2-----0--2-----0--2--|


  E  E  E  E  Q    Q       E  E  E  E  E  E  E  E     E  E  E  E  Q    Q     
------------------------|--------------------------|------------------------|
------------------------|--------------------------|------------------------|
--------------2----4----|--------------------------|--------------4----2----|
--------------2----4----|--------------------------|--------------4----2----|
-----2--4-----0----2----|--2--4-----2--4-----2--4--|-----2--4-----2----0----|
-----0--2---------------|--0--2-----0--2-----0--2--|-----0--2---------------|


  E  E  E  E  E  E  E  E     E  E  E  E  Q    Q       E  E  E  E  E  E  E  E   
--------------------------|------------------------|--------------------------|
--------------------------|------------------------|--------------------------|
--------------------------|--------------2----4----|--------------------------|
--------------------------|--------------2----4----|--------------------------|
--2--4-----2--4-----2--4--|-----2--4-----0----2----|--2--4-----2--4-----2--4--|
--0--2-----0--2-----0--2--|-----0--2---------------|--0--2-----0--2-----0--2--|


  |--3--|  |--3--|  |--3--|                                   
  E  E  E  E  E  E  E  E  E  Q       E  E  E  E  E  E  E  E   
----------------------------------|--------------------------|
----------------------------------|--------------------------|
--------------------------4--2----|--------------------------|
--------------------------4--2----|--------------------------|
--4--4--4--4--4--4--4--4--2--0----|--2--4-----2--4-----2--4--|
--2--2--2--2--2--2--2--2----------|--0--2-----0--2-----0--2--|


  E  E  E  E  Q    Q       E  E  E  E  E  E  E  E     E  E  E  E  Q    Q     
------------------------|--------------------------|------------------------|
------------------------|--------------------------|------------------------|
--------------2----4----|--------------------------|--------------4----2----|
--------------2----4----|--------------------------|--------------4----2----|
-----2--4-----0----2----|--2--4-----2--4-----2--4--|-----2--4-----2----0----|
-----0--2---------------|--0--2-----0--2-----0--2--|-----0--2---------------|


  E  E  E  E  E  E  E  E     E  E  E  E  Q    Q       E  E  E  E  E  E  E  E   
--------------------------|------------------------|--------------------------|
--------------------------|------------------------|--------------------------|
--------------------------|--------------2----4----|--------------------------|
--------------------------|--------------2----4----|--------------------------|
--2--4-----2--4-----2--4--|-----2--4-----0----2----|--2--4-----2--4-----2--4--|
--0--2-----0--2-----0--2--|-----0--2---------------|--0--2-----0--2-----0--2--|


  E  E  E  E  Q    Q       E  E  E  E  E  E  E  E     E  E  E  E  Q    Q     
------------------------|--------------------------|------------------------|
------------------------|--------------------------|--------------3---------|
--------------4----2----|--------------------------|--------------2----2----|
--------------4----2----|--------------------------|--------------0----2----|
-----2--4-----2----0----|--2--4-----2--4-----2--4--|-----2--4----------0----|
-----0--2---------------|--0--2-----0--2-----0--2--|-----0--2---------------|


  E  E  E  E  E  E  E  E     E  E  E  E  Q    Q       E  E  E  E  E  E  E  E   
--------------------------|------------------------|--------------------------|
--------------------------|--------------3---------|--------------------------|
--------------------------|--------------2----2----|--------------------------|
--------------------------|--------------0----2----|--------------------------|
--2--4-----2--4-----2--4--|-----2--4----------0----|--2--4-----2--4-----2--4--|
--0--2-----0--2-----0--2--|-----0--2---------------|--0--2-----0--2-----0--2--|


  E  E  E  E  Q    Q       E  E  E  E  E  E  E  E     E  E  E  E  Q    Q     
------------------------|--------------------------|------------------------|
--------------3---------|--------------------------|--------------3---------|
--------------2----2----|--------------------------|--------------2----2----|
--------------0----2----|--------------------------|--------------0----2----|
-----2--4----------0----|--2--4-----2--4-----2--4--|-----2--4----------0----|
-----0--2---------------|--0--2-----0--2-----0--2--|-----0--2---------------|


  E  H.           E    
---------------------||
---------------------||
---------------------||
--4--4---------------||
--4--4---------------||
--2--2---------------||

=============================================================================

Guitar 2 - lead


                                                    |--3--|  |----3---|  
                                     H        Q     S  S  S  S  S  T  T  
E||-------|-------|-------|-------|----------------21-19-17-------------|
B||-------|-------|-------|-------|-------------------------21-19-17-16-|
G||-------|-------|-------|-------|-------------------------------------|
D||-------|-------|-------|-------|-------------------------------------|
A||-------|-------|-------|-------|-------------------------------------|
E||-------|-------|-------|-------|-------------------------------------|


   |--3--|  |----3---|  |--3--|  |----3---|  |--3--|  |--3--|  |--3-|  |--3-|  
   S  S  S  S  S  T  T  S  S  S  S  S  T  T  S  S  S  S  S  S  S  S S  S  S S  
--19-17----------------17-14----------------14-13-12----------12-10-9---------|
--------19-17----------------17-15-14----------------16-14-12---------12-10-9-|
--------------19-18-16----------------16-14-----------------------------------|
------------------------------------------------------------------------------|
------------------------------------------------------------------------------|
------------------------------------------------------------------------------|


   |-3-|  |-3-| |--3-| |--3-| |-3-| |-3-| |-3-| |-3-|                           
   S S S  S S S S  S S S S  S S S S S S S S S S S S S                           
--10-9-7----------10-9-7-6----------------------------|----|----|----|----|----|
---------10-9-7------------10-9-7---------------------|----|----|----|----|----|
----------------9-----------------9-8-7-6-------------|----|----|----|----|----|
------------------------------------------9-8-7-6-5-4-|----|----|----|----|----|
------------------------------------------------------|----|----|----|----|----|
------------------------------------------------------|----|----|----|----|----|


----|----|----|----|----|----|----|----|----|----|----|----|----|----|----|
----|----|----|----|----|----|----|----|----|----|----|----|----|----|----|
----|----|----|----|----|----|----|----|----|----|----|----|----|----|----|
----|----|----|----|----|----|----|----|----|----|----|----|----|----|----|
----|----|----|----|----|----|----|----|----|----|----|----|----|----|----|
----|----|----|----|----|----|----|----|----|----|----|----|----|----|----|


-------|-------|-------|-------|-------|-------|-------|-------|-------|-------|
-------|-------|-------|-------|-------|-------|-------|-------|-------|-------|
-------|-------|-------|-------|-------|-------|-------|-------|-------|-------|
-------|-------|-------|-------|-------|-------|-------|-------|-------|-------|
-------|-------|-------|-------|-------|-------|-------|-------|-------|-------|
-------|-------|-------|-------|-------|-------|-------|-------|-------|-------|


-------|-------|-------|-------|-------|-------|-------|-------|-------|-------|
-------|-------|-------|-------|-------|-------|-------|-------|-------|-------|
-------|-------|-------|-------|-------|-------|-------|-------|-------|-------|
-------|-------|-------|-------|-------|-------|-------|-------|-------|-------|
-------|-------|-------|-------|-------|-------|-------|-------|-------|-------|
-------|-------|-------|-------|-------|-------|-------|-------|-------|-------|


-------|-------|-------|-------|-------|-------|-------|-------|-------|-------|
-------|-------|-------|-------|-------|-------|-------|-------|-------|-------|
-------|-------|-------|-------|-------|-------|-------|-------|-------|-------|
-------|-------|-------|-------|-------|-------|-------|-------|-------|-------|
-------|-------|-------|-------|-------|-------|-------|-------|-------|-------|
-------|-------|-------|-------|-------|-------|-------|-------|-------|-------|


-------|-------|-------|-------|-------|-------|-------|
-------|-------|-------|-------|-------|-------|-------|
-------|-------|-------|-------|-------|-------|-------|
-------|-------|-------|-------|-------|-------|-------|
-------|-------|-------|-------|-------|-------|-------|
-------|-------|-------|-------|-------|-------|-------|


   H          E    E   E  E     H          E    E   E   E   
-----------------------------|-----------------------------|
--12b--------12b--12--10--9--|--L~--------12b--12--10------|
-----------------------------|-------------------------11--|
-----------------------------|-----------------------------|
-----------------------------|-----------------------------|
-----------------------------|-----------------------------|


   H          E  E   E   E   
----------------------------|
-----------------9--10--12--|
---L~--------11-------------|
----------------------------|
----------------------------|
----------------------------|


   |--6--|  |--6--|  |--6--|  |--6--|  |--6--|  |--6--|            
   S  S  S  S  S  S  S  S  S  S  S  S  S  S  S  S  S  S  E    E    
-----------12-14-16----------14-16-17----------16-17-19-19b--19b--|
--12-14-15----------14-15-17----------15-17-19--------------------|
------------------------------------------------------------------|
------------------------------------------------------------------|
------------------------------------------------------------------|
------------------------------------------------------------------|


   Q       Q      E    E   E   E      H          E    E   E   E   
---Lpb----19b----19b--19--17--16--|---L~--------19b--19--17--16--|
----------------------------------|------------------------------|
----------------------------------|------------------------------|
----------------------------------|------------------------------|
----------------------------------|------------------------------|
----------------------------------|------------------------------|


   E   E   E   E   E   E   E   E      E   E   E   E   E   E   E  E   
--21--19--17----------------------|---------------------------------|
--------------21--19--17--15------|---------------------------------|
------------------------------18--|--16--14--13---------------------|
----------------------------------|--------------16--14--12--11--9--|
----------------------------------|---------------------------------|
----------------------------------|---------------------------------|


   E   E   E  E   E   E  E  E       W                     W                 
-------------------------------|----------------------|--------------------|
-------------------------------|----------------------|--------------------|
-------------------------------|--/11~----------------|---L----------------|
----------11--9----------------|----------------------|--------------------|
--12--11---------12--11--9--7--|----------------------|--------------------|
-------------------------------|----------------------|--------------------|


-----|-----|-------|-------|-------|-------|-------|-------|-------|-------|
-----|-----|-------|-------|-------|-------|-------|-------|-------|-------|
-----|-----|-------|-------|-------|-------|-------|-------|-------|-------|
-----|-----|-------|-------|-------|-------|-------|-------|-------|-------|
-----|-----|-------|-------|-------|-------|-------|-------|-------|-------|
-----|-----|-------|-------|-------|-------|-------|-------|-------|-------|


          H.            Q         H            S  S  S  S  S  S  S  S  
-------|----------------------|---------------14----------------------|
-------|---------------17b----|---Lpbr-----------17-14----14----------|
-------|----------------------|------------------------17----17-16-14-|
-------|----------------------|---------------------------------------|
-------|----------------------|---------------------------------------|
-------|----------------------|---------------------------------------|


                           \1/               
   S  S  S  S  S  S  S  S  H                 
------------------------------------|-------|
------------------------------------|-------|
--17-16-14----16-14-------14--------|-------|
-----------16-------16-14-----------|-------|
------------------------------------|-------|
------------------------------------|-------|


               |---3---|   |---3---|   |---3---|   
  H        E   S   S   S   S   S   S   S   S   S   
--------------------------------------------------|
--------------19p-17p-14h-17p-14h-17p-14h-17p-14h-|
--------------------------------------------------|
--------------------------------------------------|
--------------------------------------------------|
--------------------------------------------------|


   |---3---|   |---3---|   |---3---|   |---3---|   |---3---|   |---3---|   |---3
   S   S   S   S   S   S   S   S   S   S   S   S   S   S   S   S   S   S   S   S
--------------------------------------------------------------------------------
--17p-14h-17p-14h-17p-14h-17h-21p-14h-17p-14h-17p-14h-17p-14h-21p-17p-14h-17h-19
--------------------------------------------------------------------------------
--------------------------------------------------------------------------------
--------------------------------------------------------------------------------
--------------------------------------------------------------------------------


                                                  tap with right hand finger and
   |---3---|  |---3---|   |---3---|   |---3---|                                 
   S   S   S  S   S   S   S   S   S   S   S   S   H                             
--------------------------------------------------------------------------------
--17h-21s-22-17p-14h-17p-14h-17h-22p-17p-14h-17h-22b----------------------------
--------------------------------------------------------------------------------
--------------------------------------------------------------------------------
--------------------------------------------------------------------------------
--------------------------------------------------------------------------------


   H           H           H.           S  S S  S  
------------------------|-------------------------|
---Lpbr-----------------|------------------2-5p-2-|
------------------------|---------------4b--------|
------------------------|-------------------------|
------------------------|-------------------------|
------------------------|-------------------------|


  S S E     S  S S S S  S S S S  S  S S    E  S S S   Q.      S Q             
----------------------------------------|----------------------------|-------|
----2-----------------------------------|----------------------------|-------|
--4---4brb--4p-2---2-4p-2---2-----------|--2--------<>4b-------------|-------|
-----------------4--------4---4p-3p-2-4-|-----4-3-2------------------|-------|
----------------------------------------|----------------------------|-------|
----------------------------------------|----------------------------|-------|


                 |--3--|  |----3---|  
  H        Q     S  S  S  S  S  T  T  
----------------21-19-17-------------|
-------------------------21-19-17-16-|
-------------------------------------|
-------------------------------------|
-------------------------------------|
-------------------------------------|


   |--3--|  |----3---|  |--3--|  |----3---|  |--3--|  |--3--|  |--3-|  |--3-|  
   S  S  S  S  S  T  T  S  S  S  S  S  T  T  S  S  S  S  S  S  S  S S  S  S S  
--19-17----------------17-14----------------14-13-12----------12-10-9---------|
--------19-17----------------17-15-14----------------16-14-12---------12-10-9-|
--------------19-18-16----------------16-14-----------------------------------|
------------------------------------------------------------------------------|
------------------------------------------------------------------------------|
------------------------------------------------------------------------------|


   |-3-|  |-3-| |--3-| |--3-| |-3-| |-3-| |-3-| |-3-|  
   S S S  S S S S  S S S S  S S S S S S S S S S S S S  
--10-9-7----------10-9-7-6----------------------------|
---------10-9-7------------10-9-7---------------------|
----------------9-----------------9-8-7-6-------------|
------------------------------------------9-8-7-6-5-4-|
------------------------------------------------------|
------------------------------------------------------|


    PH                     
    H           H          
-------------------------||
-------------------------||
-------------------------||
-------------------------||
--<>4brb-----------------||
-------------------------||

=============================================================================

Guitar 3 - harmony during the solo




                                           H          E    E   E  E   
E||-------|-------|-------|-------|-------|-----------------------------|
B||-------|-------|-------|-------|-------|-----------------------------|
G||-------|-------|-------|-------|-------|--13b--------13b--13--11--9--|
D||-------|-------|-------|-------|-------|-----------------------------|
A||-------|-------|-------|-------|-------|-----------------------------|
E||-------|-------|-------|-------|-------|-----------------------------|


  H          E    E   E   E      H          E  E   E   E   
-----------------------------|----------------------------|
-----------------------------|----------------------------|
--L~--------13b--13--11------|-----------------9--11--13--|
-------------------------12--|---L~--------12-------------|
-----------------------------|----------------------------|
-----------------------------|----------------------------|


  |--6--| |--6--|  |--6--|  |--6--|  |--6--|  |--6--|            
  S  S  S S  S  S  S  S  S  S  S  S  S  S  S  S  S  S  E    E    
----------9-10-12----------10-12-14----------12-14-16-16b--16b--|
--9-10-12---------10-12-14----------12-14-15--------------------|
----------------------------------------------------------------|
----------------------------------------------------------------|
----------------------------------------------------------------|
----------------------------------------------------------------|


   Q       Q      E    E   E   E      H          E    E   E   E   
---Lpb----16b----16b--16--14--12--|---L~--------16b--16--14--12--|
----------------------------------|------------------------------|
----------------------------------|------------------------------|
----------------------------------|------------------------------|
----------------------------------|------------------------------|
----------------------------------|------------------------------|


   E   E   E   E   E   E   E  E      E   E  E  E  E  E  E  E   
--12-----------------------------|----------------------------|
------15--14--12--10-------------|----------------------------|
----------------------13--11--9--|----------------------------|
---------------------------------|--12--11--9--7--6-----------|
---------------------------------|-------------------9--7--5--|
---------------------------------|----------------------------|


  E  E  E  E  E  E  E  E     W                    W                         
--------------------------|--------------------|-------------------|-------|
--------------------------|--------------------|-------------------|-------|
--------------------------|--------------------|-------------------|-------|
--------------------------|--4~----------------|--L----------------|-------|
--4-----7--5--4-----------|--------------------|-------------------|-------|
-----7-----------7--5--0--|--------------------|-------------------|-------|





Duration Legend
---------------
W - whole
H - half
Q - quarter
E - 8th
S - 16th
T - 32nd
X - 64th
. - note dotted
|-n-|  - n-tuplets


Tablature Legend
----------------
L - tied note
x - dead note
g - grace note
(n) - ghost note
> - accentuded note
NH - natural harmonic
AH - artificial harmonic
TH - tapped harmonic
SH - semi harmonic
PH - pitch harmonic
h - hammer on
p - pull off
b - bend
br - bendRelease
pb - preBend
pbr - preBendRelease
brb - bendReleaseBend
\n/ - tremolo bar dip
\n - tremolo bar dive
-/n - tremolo bar Release up
/n\ - tremolo bar inverted dip
/n - tremolo bar return
-\n - tremolo bar Release down
S - shift slide
s - legato slide
/ -  slide into from below or out of upwards
\ -  slide into from above or out of downwards
~ - vibrato
W - wide vibrato
tr - trill
TP - tremolo picking
T - tapping
S - slap
P - pop
< - fade in
^ - brush up
v - brush down


comments
We did not receive enough feedback on this tab! Please rate:
print report bad tab
1 2 3 4 5
I want to post or [tab]
guest
You may want to rate the tab now too:
select rating
Please do not post tabs as comments. Select "correction" instead!