Oops, an error
Loading. Please wait.

The Shocker Bass Tab

ver1
ver1

Whole song

Interactive

More versions @911Tabs.com
550 views 1 this week
no commentswrite comment
1 2 3 4 5
accurate
x 3
Autoscroll
+/-
esc
set tempo
stop
Contributor
Difficulty
Tuning
intermediate
D# G# C# F# A# D#
WARNING: You are trying to view
                                    content from Ultimate-Guitar.com
                                    in an unauthorized application,
                                    which is prohibited.

                                    Please use an official Ultimate
                                    Guitar Tabs application for iPhone,
                                    iPad or Android to access legitimate
                                    chords, guitar, bass, and drum tabs
                                    from Ultimate-Guitar.com database.

                                    Type "ultimate guitar tabs" in Apple
                                    App Store's or Android Market's
                                    search to find the application.
-----------------------------------------------------------------------------
                                  
                The Shocker - Steel Panther (BASS)
            
-----------------------------------------------------------------------------
Tabbed by: Scotto10

Tuning: down one half step

=============================================================================


Bass



      E  E  E  E  E  E  E  E     E  E  E  E  Q.     E   
F#||--------------------------|------------------------|
C#||--------------------------|------------------------|
G#||--------------------------|------------------------|
D#||--5-----5-----5-----5--0--|--L--0-----x--0------2--|


  E  E  E  E  E  E  E  E     Q     E  E  E  E  E  E   
--------------------------|--------------------------|
--------------------------|--------------------------|
-----------------------5--|--L~----5-----2-----------|
--3-----3-----3--2--0-----|-----------5-----5--3--2--|


  E  E  E  E   E  E  E  E     E  E  E  E  Q.     E     E  E  E  E  E  E  E  E   
---------------------------|------------------------|--------------------------|
---------------------------|------------------------|--------------------------|
---------------------------|------------------------|-----------------------5--|
--5-----5-----/7--5--3--0--|--L--0-----x--0------2--|--3-----3-----3--2--0-----|


  W                   H.            Q        E  E  E  E  E  E  E  E   
-------------------|----------------------|--------------------------|
-------------------|----------------------|--------------------------|
--L----------------|--L-------------------|--------------------------|
-------------------|---------------10\----|--7-----7-----7-----7-----|


  E  E  E  E  E  E  E  E     E  E  E  E  E  E  E  E   
--------------------------|--------------------------|
--------------------------|--------------------------|
--------------------------|--------------------------|
--5-----5-----5-----5-----|--0-----0-----0-----0-----|


  E  E  E  E  E  E  E  E     E  E  E  E  E  E  E  E   
--------------------------|--------------------------|
--------------------------|--------------------------|
--------------------------|--------------------------|
--3-----3-----5-----5--5--|--7-----7-----7-----7-----|


  E  E  E  E  E  E  E  E     E  E  E  E  E  E  E  E   
--------------------------|--------------------------|
--------------------------|--------------------------|
--------------------------|--------------------------|
--5-----5-----5-----5-----|--0-----0-----0-----0-----|


  E  E  E  E  E  E  E  E     E  E  E  E  E  E  E  E   
--------------------------|--------------------------|
--------------------------|--------------------------|
--------------------------|--------------------------|
--3-----3-----5-----5--5--|--7--7--7--7--7--7--7--5--|


  E  E  E  E  E  E  E  E     E  E  E  E  E  E  E  E   
--------------------------|--------------------------|
--------------------------|--------------------------|
--------------------------|--------------------------|
--5--5--5--5--5--5--5--0--|--0--0--0--0--0--0--0--3--|


  E  E  E  E  E  E  E  E     E  E  E  E  E  E  E  E   
--------------------------|--------------------------|
--------------------------|--------------------------|
--------------------------|--------------------------|
--3--3--3--5--5--5--5--7--|--7-----7-----7-----7-----|


  E  E  E  E  E  E  E  E     E  E  E  E  E  E  E  E   
--------------------------|--------------------------|
--------------------------|--------------------------|
--------------------------|--------------------------|
--5-----5-----5-----5--3--|--0-----0-----0-----0-----|


  E  E  E  E  E  E  E  E     E  E  E  E  E  E  E  E   
--------------------------|--------------------------|
--------------------------|--------------------------|
--------------------------|--3--3--3--3--3--3--3--3--|
--3-----3-----5-----5--5--|--------------------------|


  E  E  E  E  E  E  E  E     E  E  E  E  E  E  E  E     Q    Q    E  E  E  E   
--------------------------|--------------------------|------------------------|
--------------------------|--------------------------|------------------------|
--5--5--5--5--5--5--5--5--|--------------------------|------------5--5--5--3--|
--------------------------|--3--3--3--3--2--2--2--2--|--0----0----------------|


  E  E  E  E  E  E  E  E     E  E  E  E  E  E  E  E    
--------------------------|---------------------------|
--------------------------|---------------------------|
--L--3--3--3--3--3--3--5--|--L--5--5--5--5--5--5------|
--------------------------|-----------------------5\--|


  E  E  E  E  E  E  E  E      E  E  E  E  E  E  E  E     E  E  E  E  Q.     E   
---------------------------|--------------------------|------------------------|
---------------------------|--------------------------|------------------------|
-----------------7--7--7\--|--------------------------|------------------------|
--0--0--0--0--0------------|--5-----5-----5-----5--0--|--L--0-----x--0------2--|


  E  E  E  E  E  E  E  E     Q     E  E  E  E  E  E   
--------------------------|--------------------------|
--------------------------|--------------------------|
-----------------------5--|--L~----5-----2-----------|
--3-----3-----3--2--0-----|-----------5-----5--3--2--|


  E  E  E  E   E  E  E  E     E  E  E  E  Q.     E     E  E  E  E  E  E  E  E   
---------------------------|------------------------|--------------------------|
---------------------------|------------------------|--------------------------|
---------------------------|------------------------|-----------------------5--|
--5-----5-----/7--5--3--0--|--L--0-----x--0------2--|--3-----3-----3--2--0-----|


  H.            Q        E  E  E  E  E  E  E  E     E  E  E  E  E  E  E  E   
----------------------|--------------------------|--------------------------|
----------------------|--------------------------|--------------------------|
--L-------------------|--------------------------|--------------------------|
---------------10\----|--7-----7-----7-----7-----|--5-----5-----5-----5-----|


  E  E  E  E  E  E  E  E     E  E  E  E  E  E  E  E   
--------------------------|--------------------------|
--------------------------|--------------------------|
--------------------------|--------------------------|
--0-----0-----0-----0-----|--3-----3-----5-----5--5--|


  E  E  E  E  E  E  E  E     E  E  E  E  E  E  E  E   
--------------------------|--------------------------|
--------------------------|--------------------------|
--------------------------|--------------------------|
--7-----7-----7-----7-----|--5-----5-----5-----5-----|


  E  E  E  E  E  E  E  E     E  E  E  E  E  E  E  E   
--------------------------|--------------------------|
--------------------------|--------------------------|
--------------------------|--------------------------|
--0-----0-----0-----0-----|--3-----3-----5-----5--5--|


  E  E  E  E  E  E  E  E     E  E  E  E  E  E  E  E   
--------------------------|--------------------------|
--------------------------|--------------------------|
--------------------------|--------------------------|
--7--7--7--7--7--7--7--5--|--5--5--5--5--5--5--5--0--|


  E  E  E  E  E  E  E  E     E  E  E  E  E  E  E  E   
--------------------------|--------------------------|
--------------------------|--------------------------|
--------------------------|--------------------------|
--0--0--0--0--0--0--0--3--|--3--3--3--5--5--5--5--7--|


  E  E  E  E  E  E  E  E     E  E  E  E  E  E  E  E   
--------------------------|--------------------------|
--------------------------|--------------------------|
--------------------------|--------------------------|
--7-----7-----7-----7-----|--5-----5-----5-----5--3--|


  E  E  E  E  E  E  E  E     E  E  E  E  E  E  E  E   
--------------------------|--------------------------|
--------------------------|--------------------------|
--------------------------|--------------------------|
--0-----0-----0-----0-----|--3-----3-----5-----5--5--|


  E  E  E  E  E  E  E  E     E  E  E  E  E  E  E  E   
--------------------------|--------------------------|
--------------------------|--------------------------|
--3--3--3--3--3--3--3--3--|--5--5--5--5--5--5--5--5--|
--------------------------|--------------------------|


  E  E  E  E  E  E  E  E     Q.     E  Q.     E     E  E  E  E  E  E  E  E   
--------------------------|----------------------|--------------------------|
--------------------------|----------------------|--------------------------|
--------------------------|------------5---------|--3--3--3--3--3--3--3--5--|
--3--3--3--3--2--2--2--2--|--0-------------------|--------------------------|


  E  E  E  E  E  E  E  E      E  E  E  E  E  E  E  E   
---------------------------|--------------------------|
---------------------------|--------------------------|
--L--5--5--5--5--5--5------|--------------------------|
-----------------------5\--|--0--0--0--0--0--0--0--0--|


  E  E  E  E  E  E  E  E      E  E  E  E  E  E  E  E     E  E  E  E  Q.     E   
---------------------------|--------------------------|------------------------|
---------------------------|--------------------------|------------------------|
-----------------7--7--7\--|--------------------------|------------------------|
--0--0--0--0--0------------|--5-----5-----5-----5--0--|--L--0-----x--0------2--|


  E  E  E  E  E  E  E  E     Q     E  E  E  E  E  E   
--------------------------|--------------------------|
--------------------------|--------------------------|
-----------------------5--|--L~----5-----2-----------|
--3-----3-----3--2--0-----|-----------5-----5--3--2--|


  E  E  E  E   E  E  E  E     E  E  E  E  Q.     E     E  E  E  E  E  E  E  E   
---------------------------|------------------------|--------------------------|
---------------------------|------------------------|--------------------------|
---------------------------|------------------------|-----------------------5--|
--5-----5-----/7--5--3--0--|--L--0-----x--0------2--|--3-----3-----3--2--0-----|


  Q    E  E  E  Q    E     E  E  E  E  E  E  E  E     E  E  E  E  E  E  E  E   
------------------------|--------------------------|--------------------------|
------------------------|--------------------------|--------------------------|
--L----5--5--5--4----2--|--------------------------|--------------------------|
------------------------|--5--5--5--5--5--5--5--0--|--0--0--0--0--0--0--0--2--|


  E  E  E  E  E  E  E  E     E  E   E  E  E  E  E  E   
--------------------------|---------------------------|
--------------------------|---------------------------|
-----------------------5--|--5--5~--5-----------------|
--3--3--3--3--3--2--0-----|------------5--7--5--3--2--|


  E  E  E  E   E  E  E  E     E  E  E  E  Q.     E     E  E  E  E  E  E  E  E   
---------------------------|------------------------|--------------------------|
---------------------------|------------------------|--------------------------|
---------------------------|------------------------|-----------------------5--|
--5-----5-----/7--5--3--0--|--L--0-----x--0------2--|--3-----3-----3-----------|


  W                   E  E  E  E  E   E   Q       E  E  E  E  E   E   E  E   
-------------------|---------------------------|----------------------------|
-------------------|---------------------------|----------------------------|
--L----------------|--4-----3-----2h--3h--4----|--L--4--3-----2h--3h--4-----|
-------------------|---------------------------|-------------------------0--|


  E  E  E  E  E   E   E  E     E  H        Q.        E  E  E  E  E   E   Q     
----------------------------|---------------------|---------------------------|
----------------------------|---------------------|---------------------------|
----------------------------|---------------------|--4-----3-----2h--3h--4----|
--2-----1-----0h--1h--2--0--|--2--5--------0------|---------------------------|


  E  E  E  E  E   E   E  E     E  E  E  E  E   E   E  E     E  H        Q.      
----------------------------|----------------------------|---------------------|
----------------------------|----------------------------|---------------------|
--L--4--3-----2h--3h--4-----|----------------------------|---------------------|
-------------------------0--|--2-----1-----0h--1h--2--0--|--2--5--------0------|


  E  E  E  E  E   E   Q       E  E  E  E  E   E   E  E   
---------------------------|----------------------------|
---------------------------|----------------------------|
--4-----3-----2h--3h--4----|--L--4--3-----2h--3h--4-----|
---------------------------|-------------------------0--|


  E  E  E  E  E   E   E  E     E  H        Q.        E  E  E  E  E  E  E  E   
----------------------------|---------------------|--------------------------|
----------------------------|---------------------|--------------------------|
----------------------------|---------------------|--------------------------|
--2-----1-----0h--1h--2--0--|--2--5--------0------|--3--3--3--3--3--3--3--3--|


  E  E  E  E  E  E  E  E     E  E  E  E  E  E  E  E     Q     H.            
--------------------------|--------------------------|---------------------|
--------------------------|--------------------------|---------------------|
--------------------------|--------------------------|---------------------|
--5--5--5--5--5--5--5--5--|--7--7--7--7--7--7--7--7--|--7\-----------------|


  Q    Q    Q    E  E     E  Q    E  Q    E  E     E  E  E  E  E  E  E  E   
-----------------------|------------------------|--------------------------|
-----------------------|------------------------|--------------------------|
-----------------------|------------------------|-----------------------5--|
--5----5----5----5--0--|--L--0----x--0----0--2--|--3-----3-----3--2--0-----|


  Q     E  E  E  E  E  E     E  E  E  E   E  E  E  E     E  E  E  E  Q.     E   
--------------------------|---------------------------|------------------------|
--------------------------|---------------------------|------------------------|
--L~----5-----2-----------|---------------------------|--------------7---------|
-----------5-----5--3--2--|--5-----5-----/7--5--3--0--|--L--0-----x--0------2--|


  E  E  E  E  E  E  E  E     Q    E  E  E  Q    E     E  E  E  E  E  E  E  E   
--------------------------|------------------------|--------------------------|
--------------------------|------------------------|--------------------------|
-----------------------5--|--L----5--5--5--4----2--|--------------------------|
--3-----3-----3--2--0-----|------------------------|--5--5--5--5--5--5--5--0--|


  E  E  E  E  E  E  E  E     E  E  E  E  E  E  E  E   
--------------------------|--------------------------|
--------------------------|--------------------------|
--------------------------|-----------------------5--|
--0--0--0--0--0--0--0--2--|--3--3--3--3--3--2--0-----|


  E  E   E  E  E  E  E  E     E  E  E  E  E  E  E  E     E  E  E  E  Q.     E   
---------------------------|--------------------------|------------------------|
---------------------------|--------------------------|------------------------|
--5--5~--5-----------------|--------------------------|------------------------|
------------5--7--5--3--2--|--5-----5-----5-----5--0--|--L--0-----x--0------2--|


  E  E  E  E  E  E   E   E     W                   W                 
----------------------------|-------------------|-------------------|
----------------------------|-------------------|-------------------|
-------------------------5--|--L----------------|--L----------------|
--3-----3-----3-----/7\-----|-------------------|-------------------|


  E  E  E  E  E   E   Q       E  E  E  E  E   E   E  E   
---------------------------|----------------------------|
---------------------------|----------------------------|
--4-----3-----2h--3h--4----|--L--4--3-----2h--3h--4-----|
---------------------------|-------------------------0--|


  E  E  E  E  E   E   E  E     E  Q.     E  Q.        E  E  E  E  E   E   Q     
----------------------------|----------------------|---------------------------|
----------------------------|----------------------|---------------------------|
----------------------------|----------------------|--4-----3-----2h--3h--4----|
--2-----1-----0h--1h--2--0--|--2--5---------0------|---------------------------|


  Q    E  E  E   E   E  E     E  E  E  E  E   E   E  E     E  Q.     E  Q.      
---------------------------|----------------------------|----------------------|
---------------------------|----------------------------|----------------------|
--4----3-----2h--3h--4-----|----------------------------|----------------------|
------------------------0--|--2-----1-----0h--1h--2--0--|--2--5---------0------|


  E  E  E  E  E   E   Q       E  E  E  E  E   E   E  E   
---------------------------|----------------------------|
---------------------------|----------------------------|
--4-----3-----2h--3h--4----|--L--4--3-----2h--3h--4-----|
---------------------------|-------------------------0--|


  E  E  E  E  E   E   E  E     E  Q.     E  Q.        E  E  E  E  E   E   Q     
----------------------------|----------------------|---------------------------|
----------------------------|----------------------|---------------------------|
----------------------------|----------------------|--4-----3-----2h--3h--4----|
--2-----1-----0h--1h--2--0--|--2--5---------0------|---------------------------|


  Q    E  E  E   E   E  E     E  E  E  E  E   E   E  E     E  H        Q.      
---------------------------|----------------------------|---------------------|
---------------------------|----------------------------|---------------------|
--4----3-----2h--3h--4-----|----------------------------|---------------------|
------------------------0--|--2-----1-----0h--1h--2--0--|--2--5--------0------|


  W                   W                   W                   W                 
-------------------|-------------------|-------------------|-------------------|
-------------------|-------------------|-------------------|-------------------|
-------------------|-------------------|-------------------|-------------------|
--2----------------|--L----------------|--L----------------|--L----------------|


  W                   H.           Q       
-------------------|---------------------||
-------------------|---------------------||
-------------------|---------------------||
--L----------------|--L------------2\----||




Duration Legend
---------------
W - whole
H - half
Q - quarter
E - 8th
S - 16th
T - 32nd
X - 64th
. - note dotted
|-n-|  - n-tuplets


Tablature Legend
----------------
L - tied note
x - dead note
g - grace note
(n) - ghost note
> - accentuded note
NH - natural harmonic
AH - artificial harmonic
TH - tapped harmonic
SH - semi harmonic
PH - pitch harmonic
h - hammer on
p - pull off
b - bend
br - bendRelease
pb - preBend
pbr - preBendRelease
brb - bendReleaseBend
\n/ - tremolo bar dip
\n - tremolo bar dive
-/n - tremolo bar Release up
/n\ - tremolo bar inverted dip
/n - tremolo bar return
-\n - tremolo bar Release down
S - shift slide
s - legato slide
/ -  slide into from below or out of upwards
\ -  slide into from above or out of downwards
~ - vibrato
W - wide vibrato
tr - trill
TP - tremolo picking
T - tapping
S - slap
P - pop
< - fade in
^ - brush up
v - brush down
comments
We did not receive enough feedback on this tab! Please rate:
print report bad tab
1 2 3 4 5
I want to post or [tab]
guest
You may want to rate the tab now too:
select rating
Please do not post tabs as comments. Select "correction" instead!