Oops, an error
Loading. Please wait.

The Shocker Tab

ver2
ver2

Whole song

Interactive

More versions @911Tabs.com
1,462 views 33 this week
no commentswrite comment
1 2 3 4 5
excellent!
x 1
Autoscroll
+/-
esc
set tempo
stop
Contributor
Difficulty
Tuning
advanced
D# G# C# F# A# D#
Hey! There's an official Ultimate Guitar app which is ideal
for learning songs when you're away from computer. Get the app
WARNING: You are trying to view
                                    content from Ultimate-Guitar.com
                                    in an unauthorized application,
                                    which is prohibited.

                                    Please use an official Ultimate
                                    Guitar Tabs application for iPhone,
                                    iPad or Android to access legitimate
                                    chords, guitar, bass, and drum tabs
                                    from Ultimate-Guitar.com database.

                                    Type "ultimate guitar tabs" in Apple
                                    App Store's or Android Market's
                                    search to find the application.
-----------------------------------------------------------------------------
                                  
                    The Shocker - Steel Panther (GUITAR)

            
-----------------------------------------------------------------------------
Tabbed by: Scotto10

Tuning: down one half step

=============================================================================

    
Guitar 1



                                     PM                                 
      H        Q.     E     E  E  E  E  H           H.           E  E   
D#||---------------------|-----0--------0--------|--3------------L--2--|
A#||---------------------|-----0--------0--------|--3------------L--3--|
F#||--2--------L---------|-----------------------|--0------------L--2--|
C#||--2--------L---------|-----------------------|--0------------L--0--|
G#||--0--------L------2--|--L--------------------|---------------------|
D#||------------------0--|--L--------0-----------|--3------------L-----|


                                                          PM           
  E  E  E  E  Q.     E     H        Q.     E     E  E  E  E  H         
--L--3--3--3--2---------|---------------------|-----0--------0--------|
--L--3--3--3--3---------|---------------------|-----0--------0--------|
--L--2--2--2--2---------|--2--------L---------|-----------------------|
--L--0--0--0--0------0--|--2--------L---------|-----------------------|
---------------------0--|--0--------L------2--|--L--------------------|
------------------------|------------------0--|--L--------0-----------|


  H.           E  E     W                   W                 
--3------------L--2--|--L----------------|--L----------------|
--3------------L--3--|--L----------------|--L----------------|
--0------------L--2--|--L----------------|--L----------------|
--0------------L--0--|--L----------------|--L----------------|
---------------------|-------------------|-------------------|
--3------------L-----|-------------------|-------------------|


  H.           E  E     H.           E  E     H.           E  E   
---------------------|---------------------|---------------------|
---------------------|------------------5--|--L------------------|
--4---------------2--|--L---------------4--|--L---------------0--|
--4---------------2--|--L------------------|------------------0--|
---------------------|---------------------|---------------------|
---------------------|---------------------|---------------------|


  Q    E  Q.     E  E     H.           E  E     H.           E  E   
-----------------------|---------------------|---------------------|
-----------------------|---------------------|------------------5--|
--L-------2---------4--|--L---------------2--|--L---------------4--|
--L-------2---------4--|--L---------------2--|--L------------------|
-----------------------|---------------------|---------------------|
-----------------------|---------------------|---------------------|


  H.           E  E     Q    E  Q.     E  E     H        E  E  E  E   
---------------------|-----------------------|-----------------------|
--L------------------|-----------------------|-----------------------|
--L---------------0--|--L-------2---------4--|--L--------L--4-----2--|
------------------0--|--L-------2---------4--|--L--------L--4-----2--|
---------------------|-----------------------|-----------------------|
---------------------|-----------------------|-----------------------|


  H        E  E  E  E     H        E  E  E  E     Q.     H        E   
-----------------------|-----------------------|---------------------|
-----------------------|-----------------------|---------------------|
--L--------L--2-----1--|--L--------L--1-----0--|--L------2--------4--|
--L--------L--2-----2--|--L--------L--2-----0--|--L------2--------4--|
-----------------------|-----------------------|---------------------|
-----------------------|-----------------------|---------------------|


  H        E  E  E  E     H        E  E  E  E     H        E  Q    E   
-----------------------|-----------------------|----------------------|
-----------------------|-----------------------|----------------------|
--L--------L--4-----2--|--L--------L--2-----1--|--L--------L--L----0--|
--L--------L--4-----2--|--L--------L--2-----2--|--L--------L--L----0--|
-----------------------|-----------------------|----------------------|
-----------------------|-----------------------|----------------------|


  Q.     H         E      W                   W                 
-----------------------|-------------------|-------------------|
-----------------------|-------------------|-------------------|
--L------2-------------|--5----------------|--7----------------|
--L------2-------------|--5----------------|--7----------------|
-----------------------|--3----------------|--5----------------|
------------------12\--|-------------------|-------------------|


  PM PM PM PM PM PM PM PM                                              
  E  E  E  E  E  E  E  E     H        Q.     E     H        Q.     E   
-----------3-----------2--|---------------------|---------------------|
--------3-----------3-----|---------------------|---------------------|
-----0-----------2--------|--9--------7------5--|--L--------L------7--|
--------------------------|--9--------7------5--|--L--------L------7--|
--------------------------|--7--------5------3--|--L--------L------5--|
--3-----------2-----------|---------------------|---------------------|


                      PM PM PM PM PM PM PM PM                        
  W                   E  E  E  E  E  E  E  E     H        Q.     E   
-------------------|--------------------------|---------------------|
-------------------|--------------------------|---------------------|
--L----------------|--------------------------|--2--------L---------|
--L----------------|--------------------------|--2--------L---------|
--L----------------|--------------------------|--0--------L------2--|
-------------------|--0--0--0--0--0--0--0--0--|------------------0--|


           PM                                                          
  E  E  E  E  H           H.           E  E     E  E  E  E  Q.     E   
-----0--------0--------|--3------------L--2--|--L--3--3--3--2---------|
-----0--------0--------|--3------------L--3--|--L--3--3--3--3---------|
-----------------------|--0------------L--2--|--L--2--2--2--2---------|
-----------------------|--0------------L--0--|--L--0--0--0--0------0--|
--L--------------------|---------------------|---------------------0--|
--L--------0-----------|--3------------L-----|------------------------|


                                 PM                                 
  H        Q.     E     E  E  E  E  H           H.           E  E   
---------------------|-----0--------0--------|--3------------L--2--|
---------------------|-----0--------0--------|--3------------L--3--|
--2--------L---------|-----------------------|--0------------L--2--|
--2--------L---------|-----------------------|--0------------L--0--|
--0--------L------2--|--L--------------------|---------------------|
------------------0--|--L--------0-----------|--3------------L-----|


  W                   H.           E  E     H.           E  E   
--L----------------|---------------------|---------------------|
--L----------------|---------------------|------------------5--|
--L----------------|--4---------------2--|--L---------------4--|
--L----------------|--4---------------2--|--L------------------|
-------------------|---------------------|---------------------|
-------------------|---------------------|---------------------|


  H.           E  E     Q    E  Q.     E  E     H.           E  E   
---------------------|-----------------------|---------------------|
--L------------------|-----------------------|---------------------|
--L---------------0--|--L-------2---------4--|--L---------------2--|
------------------0--|--L-------2---------4--|--L---------------2--|
---------------------|-----------------------|---------------------|
---------------------|-----------------------|---------------------|


  H.           E  E     H.           E  E     Q    E  Q.     E  E   
---------------------|---------------------|-----------------------|
------------------5--|--L------------------|-----------------------|
--L---------------4--|--L---------------0--|--L-------2---------4--|
--L------------------|------------------0--|--L-------2---------4--|
---------------------|---------------------|-----------------------|
---------------------|---------------------|-----------------------|


  H        E  E  E  E     H        E  E  E  E     H        E  E  E  E   
-----------------------|-----------------------|-----------------------|
-----------------------|-----------------------|-----------------------|
--L--------L--4-----2--|--L--------L--2-----1--|--L--------L--1-----0--|
--L--------L--4-----2--|--L--------L--2-----2--|--L--------L--2-----0--|
-----------------------|-----------------------|-----------------------|
-----------------------|-----------------------|-----------------------|


  Q.     H        E     H        E  E  E  E     H        E  E  E  E   
---------------------|-----------------------|-----------------------|
---------------------|-----------------------|-----------------------|
--L------2--------4--|--L--------L--4-----2--|--L--------L--2-----1--|
--L------2--------4--|--L--------L--4-----2--|--L--------L--2-----2--|
---------------------|-----------------------|-----------------------|
---------------------|-----------------------|-----------------------|


  H        E  Q    E     Q.     H         E      W                 
----------------------|-----------------------|-------------------|
----------------------|-----------------------|-------------------|
--L--------L--L----0--|--L------2-------------|--5----------------|
--L--------L--L----0--|--L------2-------------|--5----------------|
----------------------|-----------------------|--3----------------|
----------------------|------------------12\--|-------------------|


                      PM PM PM PM PM PM PM PM                         
  W                   E  E  E  E  E  E  E  E     Q.     E  Q.     E   
-------------------|-----------3-----------2--|----------------------|
-------------------|--------3-----------3-----|----------------------|
--7----------------|-----0-----------2--------|--9---------7---------|
--7----------------|--------------------------|--9---------7---------|
--5----------------|--------------------------|--7---------5---------|
-------------------|--3-----------2-----------|----------------------|


                                            PM PM PM PM PM PM PM PM  
  H        Q.     E     W                   E  E  E  E  E  E  E  E   
---------------------|-------------------|--------------------------|
---------------------|-------------------|--------------------------|
--5--------L------7--|--L----------------|--------------------------|
--5--------L------7--|--L----------------|--------------------------|
--3--------L------5--|--L----------------|--------------------------|
---------------------|-------------------|--0--0--0--0--0--0--0--0--|


  PM PM PM PM PM PM  PM                                      PM           
  E  E  E  E  E  E   Q        H        Q.     E     E  E  E  E  H         
---------------------------|---------------------|-----0--------0--------|
---------------------------|---------------------|-----0--------0--------|
---------------------------|--2--------L---------|-----------------------|
---------------------------|--2--------L---------|-----------------------|
---------------------------|--0--------L------2--|--L--------------------|
--0--0--0--0--0--0--12\----|------------------0--|--L--------0-----------|


  H.           E  E     E  E  E  E  Q.     E     H        Q.     E   
--3------------L--2--|--L--3--3--3--2---------|---------------------|
--3------------L--3--|--L--3--3--3--3---------|---------------------|
--0------------L--2--|--L--2--2--2--2---------|--2--------L---------|
--0------------L--0--|--L--0--0--0--0------0--|--2--------L---------|
---------------------|---------------------0--|--0--------L------2--|
--3------------L-----|------------------------|------------------0--|


           PM                                                          
  E  E  E  E  H           H.           E  E     E  E  E  E  Q.     E   
-----0--------0--------|--3------------L--2--|--L--3--3--3--2---------|
-----0--------0--------|--3------------L--3--|--L--3--3--3--3---------|
-----------------------|--0------------L--2--|--L--2--2--2--2---------|
-----------------------|--0------------L--0--|--L--0--0--0--0------0--|
--L--------------------|---------------------|---------------------0--|
--L--------0-----------|--3------------L-----|------------------------|


  Q    Q    Q    E  E     Q    E  E  Q    E  E     Q    E  E  E  E  E  E   
-----------------------|------------------------|-------------------------|
-------3----2----------|------------------------|-------------------------|
--2----2----2----2-----|-------2--2--1----1-----|-------5--5--5--4--0-----|
--2----2----2----2-----|-------2--2--2----2-----|-------5--5--5--5--0--0--|
--0----0----0----0-----|--2---------------------|-------------------------|
--------------------0--|--0------------------2--|--3----------------------|


                                                          PM           
  Q    Q    E  E  E  E     H        Q.     E     E  E  E  E  H         
------------2--2--2--2--|---------------------|-----0--------0--------|
--3----3----3--3--3--3--|---------------------|-----0--------0--------|
--2----2----2--2--2--2--|--2--------L---------|-----------------------|
--0----0----0--0--0--0--|--2--------L---------|-----------------------|
------------------------|--0--------L------2--|--L--------------------|
------------------------|------------------0--|--L--------0-----------|


  H.           E  E     H.            Q        E  E  E  E  E   E  Q      
--3------------L--2--|--L-------------------|---------------------------|
--3------------L--3--|--L-------------------|---------------------------|
--0------------L--2--|--L-------------------|---------------------------|
--0------------L--0--|--L-------------------|---------------------------|
---------------------|----------------------|--4-----3-----2h--3--4~----|
--3------------L-----|---------------12\----|---------------------------|


  E  E  E  E  E   E  E  E     E  E  E  E  E   E  E  E     E  H        Q.      
---------------------------|---------------------------|---------------------|
---------------------------|---------------------------|---------------------|
---------------------------|---------------------------|---------------------|
---------------------------|---------------------------|-----2---------------|
--L--4--3-----2h--3--4-----|---------------------------|-----0--------2------|
------------------------0--|--2-----1-----0h--1--2--0--|--2-----------0------|


  E  E  E  E  E   E  Q        E  E  E  E  E   E  E  E   
---------------------------|---------------------------|
---------------------------|---------------------------|
---------------------------|---------------------------|
---------------------------|---------------------------|
--4-----3-----2h--3--4~----|--L--4--3-----2h--3--4-----|
---------------------------|------------------------0--|


  E  E  E  E  E   E  E  E     E  H        Q.        E  E  E  E  E   E  Q      
---------------------------|---------------------|---------------------------|
---------------------------|---------------------|---------------------------|
---------------------------|---------------------|---------------------------|
---------------------------|-----2---------------|---------------------------|
---------------------------|-----0--------2------|--4-----3-----2h--3--4~----|
--2-----1-----0h--1--2--0--|--2-----------0------|---------------------------|


  E  E  E  E  E   E  E  E     E  E  E  E  E   E  E  E     E  H        Q.      
---------------------------|---------------------------|---------------------|
---------------------------|---------------------------|---------------------|
---------------------------|---------------------------|---------------------|
---------------------------|---------------------------|-----2---------------|
--L--4--3-----2h--3--4-----|---------------------------|-----0--------2------|
------------------------0--|--2-----1-----0h--1--2--0--|--2-----------0------|


  W                   W                   E  E  E  E  E  E  E  E   
-------------------|-------------------|--------------------------|
-------------------|-------------------|--------------------------|
--0----------------|--2----------------|--------------------------|
--0----------------|--2----------------|--4--4--4--4--4--4--4--4--|
-------------------|--0----------------|--2--2--2--2--2--2--2--2--|
--3----------------|-------------------|--------------------------|


                                                       PM           
  Q     H.              H        Q.     E     E  E  E  E  H         
---------------------|---------------------|-----0--------0--------|
---------------------|---------------------|-----0--------0--------|
---------------------|--2--------L---------|-----------------------|
--4\-----------------|--2--------L---------|-----------------------|
--2\-----------------|--0--------L------2--|--L--------------------|
---------------------|------------------0--|--L--------0-----------|


  H.           E  E     E  E  E  E  Q.     E     H        Q.     E   
--3------------L--2--|--L--3--3--3--2---------|---------------------|
--3------------L--3--|--L--3--3--3--3---------|---------------------|
--0------------L--2--|--L--2--2--2--2---------|--2--------L---------|
--0------------L--0--|--L--0--0--0--0------0--|--2--------L---------|
---------------------|---------------------0--|--0--------L------2--|
--3------------L-----|------------------------|------------------0--|


           PM                                                          
  E  E  E  E  H           H.           E  E     E  E  E  E  Q.     E   
-----0--------0--------|--3------------L--2--|--L--3--3--3--2---------|
-----0--------0--------|--3------------L--3--|--L--3--3--3--3---------|
-----------------------|--0------------L--2--|--L--2--2--2--2---------|
-----------------------|--0------------L--0--|--L--0--0--0--0------0--|
--L--------------------|---------------------|---------------------0--|
--L--------0-----------|--3------------L-----|------------------------|


  Q    E  E  Q    E  E     Q    E  E  Q    E  E     Q    E  E  E  E  E  E   
------------------------|------------------------|-------------------------|
-------3--3--2----------|------------------------|-------------------------|
--2----2--2--2----2-----|-------2--2--1----1-----|-------5--5--5--4--0-----|
--2----2--2--2----2-----|-------2--2--2----2-----|-------5--5--5--5--0--0--|
--0----0--0--0----0-----|--2---------------------|-------------------------|
---------------------0--|--0------------------2--|--3----------------------|


                                                          PM           
  Q    Q    E  E  E  E     H        Q.     E     E  E  E  E  H         
------------2--2--2--2--|---------------------|-----0--------0--------|
--3----3----3--3--3--3--|---------------------|-----0--------0--------|
--2----2----2--2--2--2--|--2--------L---------|-----------------------|
--0----0----0--0--0--0--|--2--------L---------|-----------------------|
------------------------|--0--------L------2--|--L--------------------|
------------------------|------------------0--|--L--------0-----------|


  H.           E  E     W                   W                 
--3------------L--2--|--L----------------|--L----------------|
--3------------L--3--|--L----------------|--L----------------|
--0------------L--2--|--L----------------|--L----------------|
--0------------L--0--|--L----------------|--L----------------|
---------------------|-------------------|-------------------|
--3------------L-----|-------------------|-------------------|


  E  E  E  E  E   E  Q        E  E  E  E  E   E  E  E   
---------------------------|---------------------------|
---------------------------|---------------------------|
---------------------------|---------------------------|
---------------------------|---------------------------|
--4-----3-----2h--3--4~----|--L--4--3-----2h--3--4-----|
---------------------------|------------------------0--|


  E  E  E  E  E   E  E  E     E  Q.     E  Q.        E  E  E  E  E   E  Q      
---------------------------|----------------------|---------------------------|
---------------------------|----------------------|---------------------------|
---------------------------|----------------------|---------------------------|
---------------------------|-----2------x---------|---------------------------|
---------------------------|-----0------x--2------|--4-----3-----2h--3--4~----|
--2-----1-----0h--1--2--0--|--2------------0------|---------------------------|


  Q    E  E  E   E  E  E     E  E  E  E  E   E  E  E     E  Q.     E  Q.      
--------------------------|---------------------------|----------------------|
--------------------------|---------------------------|----------------------|
--------------------------|---------------------------|----------------------|
--------------------------|---------------------------|-----2------x---------|
--4----3-----2h--3--4-----|---------------------------|-----0------x--2------|
-----------------------0--|--2-----1-----0h--1--2--0--|--2------------0------|


  E  E  E  E  E   E  Q        E  E  E  E  E   E  E  E   
---------------------------|---------------------------|
---------------------------|---------------------------|
---------------------------|---------------------------|
---------------------------|---------------------------|
--4-----3-----2h--3--4~----|--L--4--3-----2h--3--4-----|
---------------------------|------------------------0--|


  E  E  E  E  E   E  E  E     E  Q.     E  Q.        E  E  E  E  E   E  Q      
---------------------------|----------------------|---------------------------|
---------------------------|----------------------|---------------------------|
---------------------------|----------------------|---------------------------|
---------------------------|-----2------x---------|---------------------------|
---------------------------|-----0------x--2------|--4-----3-----2h--3--4~----|
--2-----1-----0h--1--2--0--|--2------------0------|---------------------------|


  Q    E  E  E   E  E  E     E  E  E  E  E   E  E  E     E  H        Q.      
--------------------------|---------------------------|---------------------|
--------------------------|---------------------------|---------------------|
--------------------------|---------------------------|---------------------|
--------------------------|---------------------------|-----2---------------|
--4----3-----2h--3--4-----|---------------------------|-----0--------2------|
-----------------------0--|--2-----1-----0h--1--2--0--|--2-----------0------|


  W                   W                   W                   W                 
-------------------|-------------------|-------------------|-------------------|
-------------------|-------------------|-------------------|-------------------|
-------------------|-------------------|-------------------|-------------------|
-------------------|-------------------|-------------------|-------------------|
--4----------------|--L----------------|--L----------------|--L----------------|
--2----------------|--L----------------|--L----------------|--L----------------|


  W                   H.           Q       
-------------------|---------------------||
-------------------|---------------------||
-------------------|---------------------||
-------------------|---------------------||
--L----------------|--L------------4\----||
--L----------------|--L------------2\----||



========================================================================


Guitar 2 (Lead)



                              H        Q    E  S S   
D#||-------|-------|-------|------------------------|
A#||-------|-------|-------|------------------------|
F#||-------|-------|-------|-------------------2-Ls-|
C#||-------|-------|-------|------------------------|
G#||-------|-------|-------|------------------------|
D#||-------|-------|-------|------------------------|


  E  E   E  E  S  S E  E      E      E   E    E   E    E   Q     E    
-----5------7--L----9--9---------|------12-------14-------16\--------|
---------------------------------|-----------------------------------|
--6-----/7-------/9-------11g13--|--13------/14------/16-------------|
---------------------------------|-------------------------------2s--|
---------------------------------|-----------------------------------|
---------------------------------|-----------------------------------|


                                   NH   NH   NH   NH   NH   NH   NH  
  E  E  E  E  E  E  E  E      E    E    E    E    E    E    E    E   
---------------------------|----------------------------------------|
---------------------------|----------------------------------------|
-----0-----0---------------|----------<>7--<>5-------<>7------------|
--5-----4--4--2--2--0------|-----<>7------------<>9-------<>7--<>9--|
-----------------------5~--|--L-------------------------------------|
---------------------------|----------------------------------------|


    \1/    \1/  \1/  \1/                                                   
    Q      Q    Q    Q                                                     
--------------------------|-------|-------|-------|-------|-------|-------|
--------------------------|-------|-------|-------|-------|-------|-------|
--------------------------|-------|-------|-------|-------|-------|-------|
--<>L----<>9----0----0----|-------|-------|-------|-------|-------|-------|
--------------------------|-------|-------|-------|-------|-------|-------|
--------------------------|-------|-------|-------|-------|-------|-------|


                  PM PM PM PM PM             PM PM PM PM PM           
                  E  E  E  E  E  E  E  E     E  E  E  E  E  E  E  E   
-------|-------|--------------------------|--------------------------|
-------|-------|-----------------3--------|-----------------2-----0--|
-------|-------|-----------------4--------|-----------------2-----1--|
-------|-------|-----------------4-----2--|-----------------------2--|
-------|-------|--2--2--2--2--2--------0--|--0--0--0--0--0-----------|
-------|-------|--------------------------|--------------------------|


  PM PM PM PM PM PM PM       PM PM PM PM PM PM PM PM  
  E  E  E  E  E  E  E  E     E  E  E  E  E  E  E  E   
--------------------------|--------------------------|
--------------------------|--------------------------|
--------------------------|--------------------------|
--------------------------|--------------------------|
-----------------------5--|-----------0--0--0--0--2--|
--0--0--0--0--0--0--0--3--|--3--3--3-----------------|


  PM PM PM PM PM             PM PM PM PM PM           
  E  E  E  E  E  E  E  E     E  E  E  E  E  E  E  E   
--------------------------|--------------------------|
-----------------3--------|-----------------2-----0--|
-----------------4--------|-----------------2-----1--|
-----------------4-----2--|-----------------------2--|
--2--2--2--2--2--------0--|--0--0--0--0--0-----------|
--------------------------|--------------------------|


  PM PM PM PM PM PM PM       PM PM PM PM PM PM PM                           
  E  E  E  E  E  E  E  E     E  E  E  E  E  E  E   E      W                 
--------------------------|----------------------------|-------------------|
--------------------------|----------------------------|-------------------|
--------------------------|----------------------------|--9----------------|
--------------------------|-----------2----------------|-------------------|
-----------------------5--|--L--------0--0--0--0-------|--7----------------|
--0--0--0--0--0--0--0--3--|--L--3--3--------------12\--|-------------------|


   W                                                                         
--------------------|-------|-------|-------|-------|-------|-------|-------|
--------------------|-------|-------|-------|-------|-------|-------|-------|
--11----------------|-------|-------|-------|-------|-------|-------|-------|
--------------------|-------|-------|-------|-------|-------|-------|-------|
---9----------------|-------|-------|-------|-------|-------|-------|-------|
--------------------|-------|-------|-------|-------|-------|-------|-------|


-------|-------|-------|-------|-------|-------|-------|-------|-------|-------|
-------|-------|-------|-------|-------|-------|-------|-------|-------|-------|
-------|-------|-------|-------|-------|-------|-------|-------|-------|-------|
-------|-------|-------|-------|-------|-------|-------|-------|-------|-------|
-------|-------|-------|-------|-------|-------|-------|-------|-------|-------|
-------|-------|-------|-------|-------|-------|-------|-------|-------|-------|


                                  PM PM PM PM PM           
                                  E  E  E  E  E  E  E  E   
-------|-------|-------|-------|--------------------------|
-------|-------|-------|-------|-----------------3--------|
-------|-------|-------|-------|-----------------4--------|
-------|-------|-------|-------|-----------------4-----2--|
-------|-------|-------|-------|--2--2--2--2--2--------0--|
-------|-------|-------|-------|--------------------------|


  PM PM PM PM PM             PM PM PM PM PM PM PM     
  E  E  E  E  E  E  E  E     E  E  E  E  E  E  E  E   
--------------------------|--------------------------|
-----------------2-----0--|--------------------------|
-----------------2-----1--|--------------------------|
-----------------------2--|--------------------------|
--0--0--0--0--0-----------|-----------------------5--|
--------------------------|--0--0--0--0--0--0--0--3--|


  PM PM PM PM PM PM PM PM    PM PM PM PM PM           
  E  E  E  E  E  E  E  E     E  E  E  E  E  E  E  E   
--------------------------|--------------------------|
--------------------------|-----------------3--------|
--------------------------|-----------------4--------|
--------------------------|-----------------4-----2--|
-----------0--0--0--0--2--|--2--2--2--2--2--------0--|
--3--3--3-----------------|--------------------------|


  PM PM PM PM PM             PM PM PM PM PM PM PM     
  E  E  E  E  E  E  E  E     E  E  E  E  E  E  E  E   
--------------------------|--------------------------|
-----------------2-----0--|--------------------------|
-----------------2-----1--|--------------------------|
-----------------------2--|--------------------------|
--0--0--0--0--0-----------|-----------------------5--|
--------------------------|--0--0--0--0--0--0--0--3--|


  PM PM PM PM PM PM PM                                                        
  E  E  E  E  E  E  E   E      W                    W                         
----------------------------|-------------------|--------------------|-------|
----------------------------|-------------------|--------------------|-------|
----------------------------|--9----------------|--11----------------|-------|
-----------2----------------|-------------------|--------------------|-------|
--L--------0--0--0--0-------|--7----------------|---9----------------|-------|
--L--3--3--------------12\--|-------------------|--------------------|-------|


                   W                 
-------|-------|--------------------|
-------|-------|--------------------|
-------|-------|--11----------------|
-------|-------|--------------------|
-------|-------|---9----------------|
-------|-------|--------------------|


   S  S  S  S  S  S  S  S  S  S  S  S  S  S  S  S     Q      H         Q     
--19----15-16-------------------------------------|-------------------------|
-----17-------17-15-------------------------------|---------12--------------|
--------------------18-16-15-14-------------------|---------12b-------------|
--------------------------------17-14-17-18-14-12-|--14~--------------------|
--------------------------------------------------|-------------------------|
--------------------------------------------------|-------------------------|


-------|-------|-------|-------|-------|-------|-------|-------|-------|-------|
-------|-------|-------|-------|-------|-------|-------|-------|-------|-------|
-------|-------|-------|-------|-------|-------|-------|-------|-------|-------|
-------|-------|-------|-------|-------|-------|-------|-------|-------|-------|
-------|-------|-------|-------|-------|-------|-------|-------|-------|-------|
-------|-------|-------|-------|-------|-------|-------|-------|-------|-------|


                                          H.            Q      
-------|-------|-------|-------|-------|----------------------|
-------|-------|-------|-------|-------|----------------------|
-------|-------|-------|-------|-------|----------------------|
-------|-------|-------|-------|-------|----------------------|
-------|-------|-------|-------|-------|----------------------|
-------|-------|-------|-------|-------|---------------12\----|


        |--3--|                         |--3--|                  
  E  E  E  E  E  E  E   Q        S S E  E  E  E  E  E   E   E    
------------------------------|---------------------------------|
-----9--x--x--x--9--9---------|--x-x-9--x--x--x--9--9------12b--|
-----9--x--x--x--9--9---------|--x-x-9--x--x--x--9--9-----------|
-----------------------11~----|-------------------------x-------|
------------------------------|---------------------------------|
------------------------------|---------------------------------|


   S S  S  S  S  S  S  S  S  S  S  S  S  S  S  S  
-----9-----------9-----------9-----------9-------|
---L---12p-9-12b---12p-9-12b---12p-9-12b---12p-9-|
-------------------------------------------------|
-------------------------------------------------|
-------------------------------------------------|
-------------------------------------------------|


                                            |--3--|                
   E    S S  S  S S  S E   Q.         E  E  E  E  E  E  E   E  E   
-----------------------------------|------------------------------|
--12b--12-9------------------------|-----9--x--x--x--9--9------9--|
------------12-11-9----9b--9b------|--x--9--x--x--x--9--9------9--|
--------------------11-------------|-----------------------11-----|
-----------------------------------|------------------------------|
-----------------------------------|------------------------------|


  S S E  E   E  E  E   E  E       E   E    E   E   S   S  S  S  S  S  S  S  
-----------------------------|---------------------------------------------|
--x-x-9--9------9--9------9--|-------12-------14---------17-19----17-19-21-|
--x-x-9--9------9--9------9--|--/13------/15------15s-18-------18----------|
------------11--------11-----|---------------------------------------------|
-----------------------------|---------------------------------------------|
-----------------------------|---------------------------------------------|


   E      S  S  S  S  E      Q        E   E    
-----------------------------------------19b--|
--19pbr--17----17-19-19pbr--19pbr----17-------|
------------18--------------------------------|
----------------------------------------------|
----------------------------------------------|
----------------------------------------------|


                   |---3---|               
   Q     E    E    E   E   E   S  S  S  S  
---L----19b--19b--16--21--16--21----16-21-|
---------------------------------20-------|
------------------------------------------|
------------------------------------------|
------------------------------------------|
------------------------------------------|


   S  S  S  S  S  S  S  S  Q        Q        
-----16-21----16-21----16-------------------|
--20-------20-------20----19pbr----18pbr----|
--------------------------------------------|
--------------------------------------------|
--------------------------------------------|
--------------------------------------------|


                         |---6--|  |---6---|   
   S  S   Q       S  S   E  E   E  E   E   E   
------------------------12--9-----------------|
---L-15s-14br-----L--L\--------12--9----------|
--------------------------------------12--11--|
----------------------------------------------|
----------------------------------------------|
----------------------------------------------|


                                                      \1/          
  |---6--|   |---6--|                                              
  E   E  E   E   E  E   Q.      E      E   E   E  E   Q.      E    
------------------------------------|-----------------------------|
------------------------------------|-----------------------------|
--9---------------------------------|-----12--10--9---------------|
-----11--9----------------------8s--|--9-------------12------10s--|
------------11--10--9---------------|-----------------------------|
-----------------------12b----------|-----------------------------|


                   \1/                                                      
   E   E   E   E   Q.      E       E   E      E   E      E   E      E   E   
-------------------------------|-------------------------------------------|
-------------------------------|-------------------------------------------|
------14--12--11---------------|------16---------18---------19---------20--|
--11--------------14------12s--|--13------13g14------14g15------15g16------|
-------------------------------|-------------------------------------------|
-------------------------------|-------------------------------------------|


   pull up on bar first                                                  
   -\2                 \1/                                               
   H                   H                                                 
--------------------------------|-------|-------|-------|-------|-------|
--------------------------------|-------|-------|-------|-------|-------|
--20----------------------------|-------|-------|-------|-------|-------|
--16----------------------------|-------|-------|-------|-------|-------|
-----------------------0--------|-------|-------|-------|-------|-------|
--------------------------------|-------|-------|-------|-------|-------|


-------|-------|-------|-------|-------|-------|-------|-------|-------|-------|
-------|-------|-------|-------|-------|-------|-------|-------|-------|-------|
-------|-------|-------|-------|-------|-------|-------|-------|-------|-------|
-------|-------|-------|-------|-------|-------|-------|-------|-------|-------|
-------|-------|-------|-------|-------|-------|-------|-------|-------|-------|
-------|-------|-------|-------|-------|-------|-------|-------|-------|-------|


                        |--3--|                        |--3--|                
                  E  E  E  E  E  E  E   Q        E  E  E  E  E  E  E   Q      
-------|-------|------------------------------|------------------------------|
-------|-------|-----9--x--x--x--9--9---------|-----9--x--x--x--9--9---------|
-------|-------|-----9--x--x--x--9--9---------|-----9--x--x--x--9--9---------|
-------|-------|-----------------------11~----|-----------------------11~----|
-------|-------|------------------------------|------------------------------|
-------|-------|------------------------------|------------------------------|


         |--3--|                                                                
   E  E  E  E  E  E  E   E    E         Q       S S  S  S S  S S S  S  S E      
------------------------------------|------------------------------------------|
------9--x--x--x--9--9-------12brb--|---Lpb----12-9---------12---9-------------|
------9--x--x--x--9--9--------------|---------------12-11-9--------12-11-9brb--|
---L--------------------11~---------|------------------------------------------|
------------------------------------|------------------------------------------|
------------------------------------|------------------------------------------|


  \1/                                                                 
         |--3--|                            |--3--|                   
  E   E  E  E  E  E  E   E    E      E   E  E  E  E  E  E   E    E    
----------------------------------|----------------------------------|
------9--x--x--x--9--9------------|------9--x--x--x--9--9------------|
--0---9--x--x--x--9--9------------|------9--x--x--x--9--9------------|
------------------------11~---L\--|--3/--------------------11~---L\--|
----------------------------------|----------------------------------|
----------------------------------|----------------------------------|


         |--3--|                            |---6--|  |---6---|           
  E   E  E  E  E  E  E   E    E       Q     E  E   E  E   E   E  Q        
-----------------------------12b--|---L----12--9-------------------------|
------9--x--x--x--9--9------------|---------------12--9------------------|
------9--x--x--x--9--9------------|----------------------12--11--9brb----|
--3/--------------------11~-------|--------------------------------------|
----------------------------------|--------------------------------------|
----------------------------------|--------------------------------------|


     |-3-|    |-3-|                   |-3-|    |-3-|              
  E  S S S E  S S S E   Q.         E  S S S E  S S S E   Q.       
--------------------------------|--------------------------------|
--9--x-x-x-9--x-x-x-9-----------|--9--x-x-x-9--x-x-x-9-----------|
--9--x-x-x-9--x-x-x-9-----------|--9--x-x-x-9--x-x-x-9-----------|
-----------------------11~------|-----------------------11~------|
--------------------------------|--------------------------------|
--------------------------------|--------------------------------|


     |-3-|    |-3-|                  
  E  S S S E  S S S E   Q      S  S  
------------------------------------|
--9--x-x-x-9--x-x-x-9---------12p-9-|
--9--x-x-x-9--x-x-x-9---------------|
-----------------------11~----------|
------------------------------------|
------------------------------------|


   |--6-|  |--6--|  |--6--|  |--6--|  |------6------|  |--|    |6|   
   S S  S  S  S  S  S  S  S  S  S  S  S  S  E    S  S  S  E    S E   
--------------------------------------------------------------------|
--11-9s-8s-9-11p-9-12p-9-11p-9-12p-9-11p-9-12s--19-11p-9-12s--19-9--|
--------------------------------------------------------------------|
--------------------------------------------------------------------|
--------------------------------------------------------------------|
--------------------------------------------------------------------|


   E   E   E   E   E   Q.          E   E   E   E   E   Q.       
-------------------------------|-------------------------------|
--12---x--12---x--12--12-------|--12---x--12---x--12--12-------|
--12b--x--12b--x--12--12b------|--12b--x--12b--x--12--12b------|
-------------------------------|-------------------------------|
-------------------------------|-------------------------------|
-------------------------------|-------------------------------|


     H          E   E    E    E    
----------------------------------|
--<>12b--------12--12b--12b--12b--|
----------------------------------|
----------------------------------|
----------------------------------|
----------------------------------|


   |----6---|   |---6--|   |---6--|  |---6--|                         
   E     E  E   E   E  E   E  E   E  E   E  E       W                 
------------------------------------------------|--------------------|
--12pb--12--9-----------------------------------|--------------------|
---------------12--11--9--------------------9s--|--11----------------|
--------------------------11--9------9--11------|--------------------|
---------------------------------11-------------|--------------------|
------------------------------------------------|--------------------|


                        Feedback starts here                      
   W                    W                       W                 
--------------------|-----------------------|--------------------|
--------------------|-----------------------|--------------------|
---L----------------|---L-------------------|---L----------------|
--------------------|-----------------------|--------------------|
--------------------|-----------------------|--------------------|
--------------------|-----------------------|--------------------|


   W                    H.            Q       
--------------------|-----------------------||
--------------------|-----------------------||
---L----------------|---L------------11\----||
--------------------|----------------11\----||
--------------------|-----------------------||
--------------------|-----------------------||




Duration Legend
---------------
W - whole
H - half
Q - quarter
E - 8th
S - 16th
T - 32nd
X - 64th
. - note dotted
|-n-|  - n-tuplets


Tablature Legend
----------------
L - tied note
x - dead note
g - grace note
(n) - ghost note
> - accentuded note
NH - natural harmonic
AH - artificial harmonic
TH - tapped harmonic
SH - semi harmonic
PH - pitch harmonic
h - hammer on
p - pull off
b - bend
br - bendRelease
pb - preBend
pbr - preBendRelease
brb - bendReleaseBend
\n/ - tremolo bar dip
\n - tremolo bar dive
-/n - tremolo bar Release up
/n\ - tremolo bar inverted dip
/n - tremolo bar return
-\n - tremolo bar Release down
S - shift slide
s - legato slide
/ -  slide into from below or out of upwards
\ -  slide into from above or out of downwards
~ - vibrato
W - wide vibrato
tr - trill
TP - tremolo picking
T - tapping
S - slap
P - pop
< - fade in
^ - brush up
v - brush down
comments
We did not receive enough feedback on this tab! Please rate:
print report bad tab
1 2 3 4 5
I want to post or [tab]
guest
You may want to rate the tab now too:
select rating
Please do not post tabs as comments. Select "correction" instead!