Oops, an error
Loading. Please wait.

Do It Again Tab

ver1
ver1

Solo

Whole song

Interactive

More versions @911Tabs.com
21,323 views 78 this week
3 commentsread comments
1 2 3 4 5
excellent!
x 7
Autoscroll
+/-
esc
set tempo
stop
Contributor
Difficulty
intermediate
Hey! There's an official Ultimate Guitar app which is ideal
for learning songs when you're away from computer. Get the app
WARNING: You are trying to view
                                    content from Ultimate-Guitar.com
                                    in an unauthorized application,
                                    which is prohibited.

                                    Please use an official Ultimate
                                    Guitar Tabs application for iPhone,
                                    iPad or Android to access legitimate
                                    chords, guitar, bass, and drum tabs
                                    from Ultimate-Guitar.com database.

                                    Type "ultimate guitar tabs" in Apple
                                    App Store's or Android Market's
                                    search to find the application.
Tabbed by: Joshua Garcia (joshuag523@aol.com)

Tabs for the song: Do It Again by Steely Dan
Please rate and let me know if you have any corrections. Thank you.

Couldn't find a proper solo for this tab anywhere so I decided to tab it 
myself. I would have done the whole tab but it wouldn't have come out 
accurate since I don't own an  acoustic. I hope this helps, I worked really 
hard on it and I just know it's right.


Tuning: Standard (E A D G B E)


E||-------------------------------------------------------------------|
B||-------------------------------------------------------------------|
G||-------------------------------------------------------------------|
D||-5---5-5---5-----3-------5---3-----5---3----5------3----5----3p0---|
A||-------------5-----3-------5---3-----5----------5----3-----5-------|
E||-------------------------------------------------------------------|


E||---------------------------------------------------------------3---|
B||------------------------------------------------------1---3/5------|
G||------------------------------------------2---------2--------------|
D||-----3h5-----5----3h5-5p3----------3----------5---3----------------|
A||-3h5-------5--------------5--3h4h5-----5---------------------------|
E||-------------------------------------------------------------------|


E||-----3--6---5------3-----------------------------------------------|
B||-3/5----------6------3---6---5-----3-------------------------------|
G||-------------------------------5-----3---5---0-3--2---------2--5---|
D||----------------------------------------------------3-----3--------|
A||-------------------------------------------------------5-----------|
E||-------------------------------------------------------------------|


E||-------------------------------------------------------------3/5---|
B||-------------------------------------------------------3-6---------|
G||-3h5p3p2---2h5-3h5p3p2---2h5---3p2h3p2-----3h6-3h5p4p3-------------|
D||--------3h5-----------3h5-------------3h4h5------------------------|
A||-------------------------------------------------------------------|
E||-------------------------------------------------------------------|


E||--3--5-------3-----------------------------------------------------|
B||---------6-----3---6-5------3--------------------------------------|
G||-----------------------5--------5---5p3---------3------------------|
D||----------------------------------------5---3/5-----5p3---------3--|
A||--------------------------------------------------------3---3/5----|
E||-------------------------------------------------------------------|


E||-------------------------------------------------------------------|
B||----------------------------------------------8--8---8--8---8------|
G||----------------------------------3--5----5h6----5h6----5h6--------|
D||--------------------------3--3/5-----------------------------------|
A||-5p3-1------------3--3/5-------------------------------------------|
E||-------1--1/3--6---------------------------------------------------|


E||-------------------------------------------------------------------|
B||--8---8--8---8-----------------------------------------------------|
G||--5h6----5h6---6-5-3-------3--------------------------------5---7--|
D||---------------------5-3-5---5p4p3---------3-5---3/5----8----------|
A||-----------------------------------5p4p3h5-------------------------|
E||-------------------------------------------------------------------|


E||-------------------------------------------------------------------|
B||---6--8---6/8--11-----------11-------11--11/13----13-------13------|
G||-7-----------------10-10b12----10b12-----10/12b14----12b14---------|
D||-------------------------------------------------------------------|
A||-------------------------------------------------------------------|
E||-------------------------------------------------------------------|


E||-------------------------------------------------------------------|
B||-------11-------11--11/13----13-------13---------11-------11-------|
G||-10b12----10b12-----10/12b14----12b14------10b12----10b12----10b12-|
D||-------------------------------------------------------------------|
A||-------------------------------------------------------------------|
E||-------------------------------------------------------------------|


E||-------------------------------------------------------------------|
B||-11-------13-------13-13----------11-------11--10--10--8---8-6--8--|
G||----12b14----12b14----12b14-10b12----10b12-----10--10--------------|
D||-------------------------------------------------------------------|
A||-------------------------------------------------------------------|
E||-------------------------------------------------------------------|


E||-------------------------------------------------------------------|
B||-------------------------------------------------------------------|
G||-6---6-5--3---------3-------------------3--3-5-3---3-5-3----3------|
D||------------5-3h4h5---5--3---------3h5-----------5-------5---------|
A||---------------------------5---3h5---------------------------------|
E||-------------------------------------------------------------------|


E||-------------------------------------------------------------------|
B||-------------------------------------------------------------------|
G||-5h6-5p3-6p5p3-----3-6p5p3-----3h5p3-6p3-5p4p3---------------------|
D||---------------3h5---------3h5------------------5---3h5---3--------|
A||------------------------------------------------------------5------|
E||-------------------------------------------------------------------|


E||-----------------------------------------3-----6--3-5------3-------|
B||-----------------------------3-----6---3-----6---------6-----3-----|
G||-----------------3-----5---3-----3---------------------------------|
D||-----3-----5---3-----5---------------------------------------------|
A||-3h5-----5---------------------------------------------------------|
E||-------------------------------------------------------------------|


E||-------------------------------------------------------------------|
B||-6--5-----3--------------------------------------------------------|
G||-------5----3h5--3p2---------2-5---3h5p3-2-------------------------|
D||---------------------3-----3----------------3----------------------|
A||-------------------------5--------------------5--1-----------------|
E||----------------------------------------------------3--------------|




Tablature Legend
----------------
 h   hammer-on
 p   pull-off
 b   bend
 pb  pre-bend
 r   release bend
 ~   hold / vibrato
 .   palm mute
 /   slide up
 \   slide down
 *   pinch harmonic
 '   natural harmonic
 x   mute note
 T   tap
comments
print report bad tab
3 comments total.
0 reply
CerpinTaxt wrote on April 8 2010, 07:24 pm

Brilliant! Thanks for tabbing this one out.

0 reply
TheTones wrote on August 31 2010, 06:23 am

Absoutly Poifect ^_^

0 reply
Leo.Salazar wrote on December 24 2010, 11:25 am

Great tabs!!! Looks perfect.

Leo

I want to post or [tab]
guest
You may want to rate the tab now too:
select rating
Please do not post tabs as comments. Select "correction" instead!