Oops, an error
Loading. Please wait.

Peanuts Chords

ver2
ver2

Whole song

More versions @911Tabs.com
4,943 views 9 this week
no commentswrite comment
1 2 3 4 5
excellent!
x 2
add to favorites launch autoscroll
font size
0
reset
transpose
0
reset
highlight chords
display chords
Autoscroll
+/-
esc
set tempo
stop
Contributor
WARNING: You are trying to view
                                    content from Ultimate-Guitar.com
                                    in an unauthorized application,
                                    which is prohibited.

                                    Please use an official Ultimate
                                    Guitar Tabs application for iPhone,
                                    iPad or Android to access legitimate
                                    chords, guitar, bass, and drum tabs
                                    from Ultimate-Guitar.com database.

                                    Type "ultimate guitar tabs" in Apple
                                    App Store's or Android Market's
                                    search to find the application.
××××××××××××××××××××××××××××××××××××××××××××××××××××××××××××××××××××××××××××××××
                                  P e a n u t s
                            S T E P H E N   L Y N C H
××××××××××××××××××××××××××××××××××××××××××××××××××××××××××××××××××××××××××××××××


   +--------------------------PLEASE NOTE--------------------------+
   + This file is Jordan Lapping’s own work and represents his     +
   + interpretation of the song. You may only use this file for    +
   + private study, scholarship, or research. The contents may not +
   + be duplicated for use with other websites without written     +
   + permission. Thank you for understanding. Enjoy.               +
   +---------------------------------------------------------------+


Tabbed by Jordan Lapping

Standard E Tuning


 CHORDS USED:
    A5   C5   D5   E5   F5   G    G5
e]--x----x----x----x----x----3----x--|
B]--x----x----x----x----x----0----x--|
G]--x----5----7----x----x----0----x--|
D]--7----5----7----2----3----0----5--|
A]--7----3----5----2----3----2----5--|
E]--5----3----5----0----1----3----3--|



 TABULATURE LEGEND:
(x) = muted strings
(/) = slide
(~) = let it ring
N/C = No Chord



 INTRO:
   C5/D5    A5   C5   G5
e|------------------------|
B|------------------------|
G|--5/7--7-------555------|
D|--5/7--7--777--555--55--| (x3)
A|--3/5--5--777--333--55--|
E|--3/5--5--555--333--33--|

   C5/D5    A5   C5   G5           F5        E5    G
e|------------------------------|------------------3-3--|
B|------------------------------|------------------0-0--|
G|--5/7--7-------555------------|------------------0-0--|
D|--5/7--7--777--555--55555555--|--33333333--2222--0-0--|
A|--3/5--5--777--333--55555555--|--33333333--2222--2-2--|
E|--3/5--5--555--333--33333333--|--11111111--0000--3-3--|


 VERSE 1:
   C5/D5    A5   C5   G5
e|------------------------|
B|------------------------|
G|--5/7--7-------555------|
D|--5/7--7--777--555--55--| (x3)
A|--3/5--5--777--333--55--|
E|--3/5--5--555--333--33--|

   C5/D5    A5   C5   G5           F5        E5    G
e|------------------------------|------------------3-3--|
B|------------------------------|------------------0-0--|
G|--5/7--7-------555------------|------------------0-0--|
D|--5/7--7--777--555--55555555--|--33333333--2222--0-0--|
A|--3/5--5--777--333--55555555--|--33333333--2222--2-2--|
E|--3/5--5--555--333--33333333--|--11111111--0000--3-3--|

C5/D5               A5                       C5                   G5   C5/D5
Charlie Brown had a big block head, wore a stripey sweater every day  (Ah-oh)
                    A5                        C5                      G5    C5/D5
Tried to kick that football, but Lucy always pulled the motherfucker away  (Ah-oh)
                     A5                  C5                         G5    C5/D5
Flew a kite just to try to relax, but he always put that shit in a tree  (Ah-oh)
                A5                       C5                        G5
And the little red-headed girl wouldn't give no play to poor Chuck B...
      F5                              E5              G
They were the baddest fuckers in the funny papers... PEANUTS!


 VERSE 2:
   C5/D5    A5   C5   G5
e|------------------------|
B|------------------------|
G|--5/7--7-------555------|
D|--5/7--7--777--555--55--| (x3)
A|--3/5--5--777--333--55--|
E|--3/5--5--555--333--33--|

   C5/D5    A5   C5   G5           F5        E5    G
e|------------------------------|------------------3-3--|
B|------------------------------|------------------0-0--|
G|--5/7--7-------555------------|------------------0-0--|
D|--5/7--7--777--555--55555555--|--33333333--2222--0-0--|
A|--3/5--5--777--333--55555555--|--33333333--2222--2-2--|
E|--3/5--5--555--333--33333333--|--11111111--0000--3-3--|

C5/D5   A5                C5                   G5     C5/D5
Onto a security blanket, Linus Van Pelt would latch  (Ah-oh)
                     A5                       C5                   G5     C5/D5
Snuggled up to that bitch to keep warm while waiting in a pumpkin patch  (Ah-oh)
                     A5                 C5                       G5    C5/D5
Had a stalker named Sally Brown and she always tried to get her some  (Ah-oh)
                               A5
She loved the way he knew the meaning of Christmas
         C5                       G5
And the sexy way he sucked that thumb...
       F5                           E5             G
Well, Marma Duke's a homo; Garfield is a pussy... PEANUTS!


 CHORUS 1:
   C5/D5     A5    C5    G5
e|-----------------------------|
B|-----------------------------|
G|--5/7--77--------5555--------|
D|--5/7--77--7777--5555--5555--|
A|--3/5--55--7777--3333--5555--|
E|--3/5--55--5555--3333--3333--|

    D5    A5    C5    G5
e|--------------------------|
B|--------------------------|
G|--7777--------5555--------|
D|--7777--7777--5555--5555--| (x2)
A|--5555--7777--3333--5555--|
E|--5555--5555--3333--3333--|

    D5    A5    C5    G5           F5        E5    G
e|------------------------------|------------------3-3--|
B|------------------------------|------------------0-0--|
G|--7777--------5555------------|------------------0-0--|
D|--7777--7777--5555--55555555--|--33333333--2222--0-0--|
A|--5555--7777--3333--55555555--|--33333333--2222--2-2--|
E|--5555--5555--3333--33333333--|--11111111--0000--3-3--|

C5/D5 A5     C5    G5
Oh Peanuts, crazy Peanuts
D5          A5         C5      G5
A bunch of kids trying to be free
 D5       A5      C5    G5
Take my hand and let's dance now
D5      A5                C5       G5
Under Charlie's shitty Christmas Tree
 F5            E5             G
............................ PEANUTS!


 VERSE 3:
   C5/D5    A5   C5   G5
e|------------------------|
B|------------------------|
G|--5/7--7-------555------|
D|--5/7--7--777--555--55--| (x3)
A|--3/5--5--777--333--55--|
E|--3/5--5--555--333--33--|

   C5/D5    A5   C5   G5           F5        E5    G
e|------------------------------|------------------3-3--|
B|------------------------------|------------------0-0--|
G|--5/7--7-------555------------|------------------0-0--|
D|--5/7--7--777--555--55555555--|--33333333--2222--0-0--|
A|--3/5--5--777--333--55555555--|--33333333--2222--2-2--|
E|--3/5--5--555--333--33333333--|--11111111--0000--3-3--|

C5/D5     A5                     C5                 G5    C5/D5
Oh, Marcy was best friends with Patty, Patty Peppermint  (Ah-oh)
                       A5                       C5                     G5     C5/D5
She would love to do things to that girl that Charles M. Schulz can't print  (Ah-oh)
              A5             C5                         G5    C5/D5
Pigpen was a dusty dude who couldn't keep his own ass clean  (Ah-oh)
                       A5                      C5                  G5
All the teachers said "Wah wah wha wha wha" - what does that shit mean?
       F5                             E5              G
Well, Big Bird ain't the only yellow bird in town... WOODSTOCK!


 CHORUS 2:
   C5/D5     A5    C5    G5
e|-----------------------------|
B|-----------------------------|
G|--5/7--77--------5555--------|
D|--5/7--77--7777--5555--5555--|
A|--3/5--55--7777--3333--5555--|
E|--3/5--55--5555--3333--3333--|

    D5    A5    C5    G5
e|--------------------------|
B|--------------------------|
G|--7777--------5555--------|
D|--7777--7777--5555--5555--| (x2)
A|--5555--7777--3333--5555--|
E|--5555--5555--3333--3333--|

    D5    A5    C5    G5           F5        E5    G
e|------------------------------|------------------3-3--|
B|------------------------------|------------------0-0--|
G|--7777--------5555------------|------------------0-0--|
D|--7777--7777--5555--55555555--|--33333333--2222--0-0--|
A|--5555--7777--3333--55555555--|--33333333--2222--2-2--|
E|--5555--5555--3333--33333333--|--11111111--0000--3-3--|

C5/D5 A5     C5    G5
Oh Peanuts, crazy Peanuts
 D5           A5              C5        G5
Poor Charlie Brown, you will never get laid
D5       A5      C5  G5
It's so hard to get pussy
  D5             A5             C5      G5
When you're the baldest kid in second grade
 F5            E5             G
............................ PEANUTS!


 VERSE 4:
   C5/D5    A5   C5   G5
e|------------------------|
B|------------------------|
G|--5/7--7-------555------|
D|--5/7--7--777--555--55--| (x3)
A|--3/5--5--777--333--55--|
E|--3/5--5--555--333--33--|

   C5/D5    A5   C5   G5           F5        E5    G
e|------------------------------|------------------3-3--|
B|------------------------------|------------------0-0--|
G|--5/7--7-------555------------|------------------0-0--|
D|--5/7--7--777--555--55555555--|--33333333--2222--0-0--|
A|--3/5--5--777--333--55555555--|--33333333--2222--2-2--|
E|--3/5--5--555--333--33333333--|--11111111--0000--3-3--|

C5/D5       A5                   C5                   G5       C5/D5
Lucy was a psychiatrist but her comments always gave offence  (Ah-oh)
C5/D5                  A5
And the bitch couldn't make no money
               C5                        G5     C5/D5
'Cause she'd charge a motherfucker five cents  (Ah-oh)
                     A5                            C5                   G5    C5/D5
You know the ladies love some Schroeder 'cause he played the '88s real good  (Ah-oh)
                    A5                     C5                   G5
And Franklin was a real cool cat, but the only brother in that hood...
 F5                                        E5                 G
Sometimes you have to shout "Good grief" unto the heavens... GOOD GRIEF!


 CHORUS 3:
   C5/D5     A5    C5    G5
e|-----------------------------|
B|-----------------------------|
G|--5/7--77--------5555--------|
D|--5/7--77--7777--5555--5555--|
A|--3/5--55--7777--3333--5555--|
E|--3/5--55--5555--3333--3333--|

    D5    A5    C5    G5
e|--------------------------|
B|--------------------------|
G|--7777--------5555--------|
D|--7777--7777--5555--5555--| (x3)
A|--5555--7777--3333--5555--|
E|--5555--5555--3333--3333--|

C5/D5 A5     C5    G5
Oh Peanuts, crazy Peanuts
 D5     A5                 C5     G5
Snoopy fly your plane and fly it quick
D5               A5     C5    G5
You're the World War I Flying Ace
D5        A5              C5     G5
Make Red Baron suck that Beagle dick, yeah!


BRIDGE:
    D5    A5    C5    G5
e|--------------------------|
B|--------------------------|
G|--7777--------5555--------|
D|--7777--7777--5555--5555--| (x4)
A|--5555--7777--3333--5555--|
E|--5555--5555--3333--3333--|

D5        A5        C5  G5
La na na, na na na, naa naaa
D5       A5        C5  G5
La na na naa................
D5        A5        C5  G5
La na na, na na na, naa naaa
D5     A5      C5     G5
Laa na naa... ohh-ohh-oooohhh


 OUTRO:
    D5    A5    C5    G5
e|--------------------------|
B|--------------------------|
G|--7777--------5555--------|
D|--7777--7777--5555--5555--| (x3)
A|--5555--7777--3333--5555--|
E|--5555--5555--3333--3333--|

    D5    A5   C5  G5
e|-----------------------|
B|-----------------------|
G|--7777-------55--------|
D|--7777--777--55--5~~~--|
A|--5555--777--33--5~~~--|
E|--5555--555--33--3~~~--|

D5  A5       C5    G5
Oh Peanuts, crazy Peanuts
D5          A5         C5      G5
A bunch of kids trying to be free
 D5       A5      C5    G5
Take my hand and let's dance now
D5      A5                C5       G5
Under Charlie's shitty Christmas Tree...




××××××××××××××××××××××××××××××××××××××××××××××××××××××××××××××××××××××××××××××××

××××××××××××××××××××××××××××××××××××××××××××××××××××××××××××××××××××××××××××××××
comments
We did not receive enough feedback on this tab! Please rate:
1 2 3 4 5
I want to post or [tab]
guest
You may want to rate the tab now too:
select rating
Please do not post tabs as comments. Select "correction" instead!