Oops, an error
Loading. Please wait.

The Pusher Bass Tab

4,330 views 25 this week
no commentswrite comment
1 2 3 4 5
accurate
x 1
Autoscroll
+/-
esc
set tempo
stop
WARNING: You are trying to view
                                    content from Ultimate-Guitar.com
                                    in an unauthorized application,
                                    which is prohibited.

                                    Please use an official Ultimate
                                    Guitar Tabs application for iPhone,
                                    iPad or Android to access legitimate
                                    chords, guitar, bass, and drum tabs
                                    from Ultimate-Guitar.com database.

                                    Type "ultimate guitar tabs" in Apple
                                    App Store's or Android Market's
                                    search to find the application.
Steppenwolf the pusher



 |       |       |       |        |       |       |       |        
|--------------------------------|--------------------------------|
|--------------------------------|--------------------------------|
|----------------------------8---|10------------------------------|
|------------------------8-10----|--------------------------------|

 |       |       |       |        |       |       |       |        
|--------------------------------|--------------------------------|
|--------------------------------|--------------------------------|
|----------------------------8---|10------------------------------|
|------------------------8-10----|--------------------------------|

 |       |       |       |        |       |       |       |        
|--------------------------------|--------------------------------|
|--------------------------------|--------------------------------|
|----------------------------8---|10------------------------------|
|------------------------8-10----|--------------------------------|

 |       |       |       |        |       |       |       |        
|--------------------------------|--------------------------------|
|--------------------------------|--------------------------------|
|----------------------------8---|10------------------------------|
|------------------------8-10----|--------------------------------|

 |       |       |       |        |       |       |       |        
|--------------------------------|--------------------------------|
|--------------------------------|--------------------------------|
|----------------------------8---|10------------------------------|
|------------------------8-10----|--------------------------------|

 |       |       |       |        |       |       |       |        
|------------------------12------|--------12----------------------|
|------------------1112------12--|--------------------------------|
|--------------------------------|10------------------10----------|
|--------------------------------|----------------10--------------|

 |       |       |       |        |       |       |       |        
|--------------------------------|--------------------------------|
|--------------------------------|--------------------------------|
|10------10----------10----------|10------10----------10----------|
|----------------10----------10--|----------------10--------------|

 |       |       |       |        |       |       |       |        
|--------------------------------|--------------------------------|
|--------------------------------|--------------------------------|
|10------10----------8-------8---|10------10----------10----------|
|----------------10------10------|----------------10--------------|

 |       |       |       |        |       |       |       |        
|--------------------------------|--------------------------------|
|--------------------------------|--------------------------------|
|10------10----------8-------8---|10------10----------10----------|
|----------------10------10------|----------------10--------------|

 |       |       |       |        |       |       |       |        
|--------------------------------|--------------------------------|
|----------------------------8---|10------10----------10------9---|
|10------10--10--101010101010----|----------------10------10------|
|--------------------------------|--------------------------------|

 |       |       |       |        |       |       |       |        
|--------------------------------|--------------------------------|
|10------10----------10------10--|10------10----------10------10--|
|----------------10------10------|----------------10------10------|
|--------------------------------|--------------------------------|

 |       |       |       |        |       |       |       |        
|--------------------------------|--------------------------------|
|10----------8---8---------------|----------------12--------------|
|--------10----------10------9---|10------10--------------8---9---|
|------------------------8-------|--------------------10----------|

 |       |       |       |        |       |       |       |        
|--------------------------------|--------------------------------|
|--------------------------------|----------------------------12--|
|10------10----------8-------9---|10------10----------8---1012----|
|----------------10--------------|----------------10--------------|

 |       |       |       |        |       |       |       |        
|--------------------------------|--------------------------------|
|--------------------------------|--------------------------------|
|10------10----------8-------9---|10------10----------8-------9---|
|----------------10--------------|----------------10--------------|

 |       |       |       |        |       |       |       |        
|--------------------------------|----12--12--------------12------|
|--------------------------------|------------12--12----------12--|
|10------10----------8-------9---|10------------------------------|
|----------------10--------------|--------------------------------|

 |       |       |       |        |       |       |       |        
|--------------------------------|--------------------------------|
|--------------------------------|--------------------------------|
|10------------------8-------9---|10------10----------8-------9---|
|------------10----------10------|----------------10--------------|

 |       |       |       |        |       |       |       |        
|--------------------------------|----1012----------------1012----|
|--------------------------------|--------1012--------1012----12--|
|10------10----------8-------9---|10----------10------------------|
|----------------10--------------|--------------------------------|

 |       |       |       |        |       |       |       |        
|--------------------------------|----------------12--12----------|
|--------------------------------|------------12{-----------------|
|10----------8-----------8---10--|10------10------------------8---|
|--------8h10--------8h10--------|------------------------10------|

 |       |       |       |        |       |       |       |        
|----------------12--12----------|--------------------------------|
|------------12{-----------------|--------------------------------|
|10------10------------------8---|10--------------10--------------|
|------------------------10------|--------------------------------|

 |       |       |       |        |       |       |       |        
|--------------------------------|--------------------------------|
|--------------------------------|----------------------------12--|
|10----------------------8-------|10--------------8-------10------|
|--------------------8h10--------|------------8h10----------------|

 |       |       |       |        |       |       |       |        
|--------------------------------|--------------------------------|
|--------------------------------|--------------------------------|
|--------10----------8-----------|10--------------8---10------10--|
|----------------8h10------------|------------8h10----------------|

 |       |       |       |        |       |       |       |        
|--------------------------------|--------------------------------|
|----------------------------12--|--------------------------------|
|10--------------8---10--12------|10------10------8---10------10--|
|------------8h10----------------|------------8h10----------------|

 |       |       |       |        |       |       |       |        
|--------------------------------|--------------------------------|
|----------------------7/8-------|--------------------------------|
|--------10------8---10------10--|10------10------8---10------10--|
|------------8h10----------------|------------8h10----------------|

 |       |       |       |        |       |       |       |        
|--------------------------------|--------------------------------|
|--------------------------------|--------------------------------|
|10------10------8---10------10--|10--------------8---10------10--|
|------------8h10----------------|------------8h10----------------|

 |       |       |       |        |       |       |       |        
|--------------------------------|--------------------------------|
|--------------------------------|--------------------------------|
|10--------------8---10------10--|10--------------8---10------10--|
|------------8h10----------------|------------8h10----------------|

 |       |       |       |        |       |       |       |        
|--------------------------------|--------------------------------|
|--------------------8-------8---|10------10--8---8-----------10--|
|10--10--10------8h10----8h10----|--------------10----10----------|
|------------8h10----------------|--------------------------------|

 |       |       |       |        |       |       |       |        
|--------------------------------|--------------------------------|
|10------10--8---------------10--|10------10--8---------------10--|
|--------------10----10----------|--------------10----10----------|
|----------------8---------------|----------------8---------------|

 |       |       |       |        |       |       |       |        
|--------------------------------|--------------------------------|
|8-------10--8-------------------|--------------------------------|
|--10----------10----7---8---9---|10------10----------8-------10--|
|----8-----------8---------------|----------------10--------------|

 |       |       |       |        |       |       |       |        
|--------------1210--------------|--------------------------------|
|------------12------12----------|--------------------------------|
|10------10------------------8---|10------10----------8-------10--|
|------------------------10------|----------------10--------------|

 |       |       |       |        |       |       |       |        
|--------------------------------|--------------------------------|
|--------------------------------|--------------------------------|
|10------10----------8---10--10--|10------10----------8-------10--|
|----------------10--------------|----------------8h10------------|

 |       |       |       |        |       |       |       |        
|--------------------------------|----1012------------------------|
|--------------------------------|--------1012----------------1012|
|10------10----------8-------10--|10----------10------------------|
|----------------8h10------------|--------------------------------|

 |       |       |       |        |       |       |       |        
|10------12----------------------|--------------------------------|
|--------------------------------|--------------------------------|
|------------10------8h10----8---|10------10----------8-------10--|
|----------------8-------10------|----------------10--------------|

 |       |       |       |        |       |       |       |        
|--------------------------------|--------1012----1012------------|
|--------------------------------|----1012----1012----12----------|
|10------10----------8-------10--|10----------------------10------|
|----------------10--------------|----------------------------10--|

 |       |       |       |        |       |       |       |        
|--------10----------------------|--------------------------------|
|----1012------------------------|--------------------------------|
|10--------------8---8-8-----8h9-|10------10----------8-------10--|
|------------10----10----8-8-----|----------------10--------------|

 |       |       |       |        |       |       |       |        
|--------------------------------|--------------------------------|
|--------------------------------|--------------------------------|
|10------10----------8-------10--|10--------------10--------------|
|----------------10--------------|--------------------------------|

 |       |       |       |        |       |       |       |        
|--------------------------------|--------------------------------|
|--------------------------------|--------------------------------|
|10------------------------------|10------10----------8-------10--|
|--------------------------------|----------------10--------------|

 |       |       |       |        |       |       |       |        
|------------1210----------------|--------------------------------|
|--------10------12--------------|--------------------------------|
|10----------------10----8---9---|10------10----------8-------10--|
|--------------------10----------|----------------10--------------|

 |       |       |       |        |       |       |       |        
|----1210--1210------------------|--------------------------------|
|--------12----12----------------|--------------------------------|
|10--------------10------8---9---|10------10----------8-------10--|
|--------------------10----------|----------------10--------------|

 |       |       |       |        |       |       |       |        
|--------------1210--------------|--------------------------------|
|------------------12------------|------------------------------10|
|10--10--8-1010------10------9---|10------10----------8---9---10--|
|------10----------------10------|----------------10--------------|

 |       |       |       |        |       |       |       |        
|----101210----------------------|--------------------------------|
|12----------12------------------|10--------------------------8h9-|
|----------------10--8-------8---|--------10--------------10------|
|------------------------10------|----------------8---8-----------|

 |       |       |       |        |       |       |       |        
|--------------------------------|--------------------------------|
|10--------------------------8h9-|10--------------------------8h10|
|--------10--------------10------|--------10--------------8h10----|
|----------------8---8-----------|----------------8---8-----------|

 |       |       |       |        |       |       |       |        
|--------------------------------|--------------------------------|
|10--10------10------------------|--------12----------------------|
|--------10------10------8---9---|10------------------8-------9---|
|--------------------8-----------|----------------10--------------|

 |       |       |       |        |       |       |       |        
|--------------------------------|--------------------------------|
|--------12----------------------|--------12----------------------|
|10------------------8-------9---|10------------------8-------9---|
|----------------10--------------|----------------10--------------|

 |       |       |       |        |       |       |       |        
|--------------------------------|--------------------------------|
|--------12----------------------|--------------------------------|
|10------------------8-------9---|10------10----------8-------10--|
|----------------10--------------|----------------10--------------|

 |       |       |       |        |       |       |       |        
|--------------------------------|--------------------------------|
|------------------------12------|--------------------------------|
|----10----------8---10----------|10------10----------8-------10--|
|------------10--------------10--|----------------10--------------|

 |       |       |       |        |       |       |       |        
|--------------------------------|--------------------------------|
|----------------------------12--|--------------------------------|
|10------10----------8-----------|10------10----------8-------10--|
|----------------10--------------|----------------10--------------|

 |       |       |       |        |       |       |       |        
|--------------------------------|--------------------------------|
|--------------------------------|--------------------------------|
|10------10----------8-------10--|10------10----------8-------10--|
|----------------10--------------|----------------10--------------|

 |       |       |       |        |       |       |       |        
|--------------------------------|--------------------------------|
|--------------------------------|--------------------------------|
|10------10----------8-------10--|10------10----------8-------10--|
|----------------10--------------|----------------10--------------|

 |       |       |       |        |       |       |       |        
|--------------------------------|--------1012----10--------------|
|--------------------------------|----1012----1012--------12------|
|10------10----------8-------10--|10--------------------------10--|
|----------------10--------------|--------------------------------|

 |       |       |       |        |       |       |       |        
|----10--------------------------|--------------------------------|
|1012----------------------------|--------------------------------|
|------------8---8---8-------8h9-|10------10----------8-------10--|
|--------10----10--10----10------|----------------10--------------|

 |       |       |       |        |       |       |       |        
|--------------------------------|--------1012------------10------|
|--------------------------------|----1012----12--------------10--|
|10------10----------8-------10--|10--------------8---------------|
|----------------10--------------|--------------------------------|

 |       |       |       |        |       |       |       |        
|12--------------------------1011|--------------------------------|
|--------12--------------12------|--------------------------------|
|----------------10----8---------|10------10----------8-------10--|
|------------------10------------|----------------10--------------|

 |       |       |       |        |       |       |       |        
|--------------------------------|--------------------------------|
|--------------------------------|--------------------------------|
|10------10----------8-------10--|10--------------10--------------|
|----------------10--------------|--------------------------------|

 |       |       |       |        |       |       |       |        
|--------------------------------|--------------------------------|
|--------------------------------|--------------------------------|
|10------------------------------|10------10----------8-------10--|
|--------------------------------|----------------10--------------|

 |       |       |       |        |       |       |       |        
|--------------------------------|--------------------------------|
|--------------------------------|--------------------------------|
|----10----10----10----10--------|10------10----------8-------10--|
|----------------------------10--|----------------10--------------|

 |       |       |       |        |       |       |       |        
|--------------------------------|--------------------------------|
|--------------------------------|--------------------------------|
|----10----10----10----10--------|10------10----------10------10--|
|----------------------------10--|----------------10--------------|

 |       |       |       |        |       |       |       |        
|------------------------10--11--|12------------------------------|
|--------------------12----------|--------------------------------|
|----10----10----10--------------|--------------------------------|
|--------------------------------|--------------------------------|

 |       |       |       |        |       |       |       |        
|--------------------------------|--------------------------------|
|--------------------------------|--------------------------------|
|----------------10--10--10--10--|10------------------------------|
|--------------------------------|--------------------------------|
comments
We did not receive enough feedback on this tab! Please rate:
1 2 3 4 5
I want to post or [tab]
guest
You may want to rate the tab now too:
select rating
Please do not post tabs as comments. Select "correction" instead!