Oops, an error
Loading. Please wait.

Moon For A Day Tab

1,081 views 3 this week
no commentswrite comment
1 2 3 4 5
excellent!
x 1
Autoscroll
+/-
esc
set tempo
stop
Contributor
Hey! There's an official Ultimate Guitar app which is ideal
for learning songs when you're away from computer. Get the app
WARNING: You are trying to view
                                    content from Ultimate-Guitar.com
                                    in an unauthorized application,
                                    which is prohibited.

                                    Please use an official Ultimate
                                    Guitar Tabs application for iPhone,
                                    iPad or Android to access legitimate
                                    chords, guitar, bass, and drum tabs
                                    from Ultimate-Guitar.com database.

                                    Type "ultimate guitar tabs" in Apple
                                    App Store's or Android Market's
                                    search to find the application.
         moon for a day ecrit par steve howe

         écrit en tablature par steve morin

 |       |       |        |       |       |        
|--3---3---3---3---2-----|--3---3---3---3---2-----|
|--3---3---3---3---2-----|--3---3---3---3---2-----|
|--4---4---4---4---3---3-|--4---4---4---4---3---3-|
|--5---5---5---5---4-----|--5---5---5---5---4-----|
|--5---5---5---5---4-----|--5---5---5---5---4-----|
|--3---3---3---3---2-----|--3---3---3---3---2-----|
 
 |       |        |       |       |       |        
|--3---3---3---3-|--0---0-------0-------0---0-----|
|--3---3---3---3-|--2---2-------2-------2---2-----|
|--4---4---4---4-|--3---3---3---3-------3---3-----|
|--5---5---5---5-|--4---4-------4-------4---4-----|
|--5---5---5---5-|--4---4-------4-------4---4-----|
|--3---3---3---3-|--------------------------------|
 
 |       |       |       |        |       |       |        
|--0---0-------0-------0---0-----|----------------------3-|
|--2---2-------2-------2---2-----|--------------2---3-----|
|--3---3-------3-------3---3-----|------3---4-------------|
|--4---4-------4-------4---4---4-|--5---------------------|
|--4---4-------4-------4---4-----|------------------------|
|--------------------------------|------------------------|
 
 |       |       |        |       |       |        
|--2---2-------2---2---2-|------------------------|
|------3---3---3---3-----|--2---3---5-2h3h2-0-----|
|------4---4---4---4-----|----------------------2-|
|----------4---4---4-----|------------------------|
|--2-------2-------2-----|--0---------------------|
|------------------------|------------------------|
 
 |       |       |        |       |       |        
|----------------------0-|------------------------|
|--3---2---0---2---3-----|--3---2---0---2---------|
|------------------------|------------------------|
|------------------------|----------------------4-|
|------------------------|--2-----------1---------|
|--3-----------2---------|------------------------|
 
 |       |       |        |       |       |        
|----------------------3-|--2---2h--2---2-------2-|
|--------------2---3-----|------3h--3---3---------|
|------3---4-------------|------4h--4---4---------|
|--5---------------------|------4h--4---4---4-----|
|------------------------|--2-------2-------------|
|------------------------|------------------------|
 
 |       |       |        |       |       |        
|--2h3h5h3h2-------------|----------------------0-|
|------------5-2-3-2h0---|--3---2---0---2---3-----|
|----------------------2-|------------------------|
|------------------------|------------------------|
|--0---------------------|------------------------|
|------------------------|--3-----------2---------|
 
 |       |       |        |       |       |        
|------------------------|------------------------|
|--3---2---0---2---------|--------------2---3---0-|
|------------------------|------3---4-------------|
|----------------------4-|--5---------------------|
|--2-----------1---------|------------------------|
|------------------------|------------------------|
 
 |       |        |       |        |       |        
|----------------|----------------|----------------|
|--2-------------|----------------|----------------|
|------3-4---3---|----------------|----------------|
|----------5---4-|5-2-4-0-2-------|----------------|
|----------------|----------4-5-2-|4-1-2---1-----1-|
|----------------|----------------|------3---2-3---|
 
 |       |        |       |        |       |        
|----------------|----------------|----------------|
|----------------|----------------|----------------|
|----------------|----------------|----------------|
|----------------|----------------|----------------|
|2---1-----1-2---|1-----1-2---1---|----------------|
|--3---2-3-----3-|--2-3-----3---2h|3h2h2h2h2h2h2h2h|
 
 |       |        |       |        |       |        
|----------------|----------------|----------------|
|----------------|----------------|3---2-0---------|
|----------------|----------------|--------2-1-----|
|----------------|----------------|0-----------4---|
|----------------|----------------|----------------|
|2h2h2h2h2h2h2h2h|2---------------|----------------|
 
 |       |        |       |        |       |        
|----------------|----------------|----------------|
|3---2-0---------|3---2-0-------0-|----------------|
|--------2-1-----|--------2-0-2---|2-------2-------|
|------------4---|----------------|----0-----------|
|----------------|----------------|----------------|
|0---------------|3---------------|----------------|
 
 |       |        |       |        |       |        
|----------------|----------------|----------------|
|----------------|----------------|3---1-----------|
|4---2-0-------0-|2h2h------------|------3-2-0-----|
|5-------4-2-4---|------4h0-------|------------0---|
|----------------|----------------|1---------------|
|----------------|----------------|----------------|
 
 |       |        |       |        |       |        
|----------------|----------------|----------------|
|----------------|3---2-0---------|3---2-0---------|
|----------------|2-------2-0-----|1-------2-1-----|
|----0-2---0-2---|0-----------4---|2-----------4---|
|----1-3---1-4---|0---------------|2---------------|
|----------------|----------------|0---------------|
 
 |       |        |       |        |       |        
|----------------|----------------|----------------|
|3---2-0-------0-|--------3-------|----------------|
|0-------2-0-2-0-|2-------2-------|4---2-0---------|
|0-------0-0-0-0-|0---0-----------|5-------5-4-2-4-|
|----------------|0---------------|----------------|
|3---------------|----------------|----------------|
 
 |       |        |       |        |       |       |        
|----------------|----------------|5-5---------------------|
|----------------|3---1-----------|------5-----------------|
|2h2h------------|------3-2-0-0---|----------3-------------|
|------4h0-------|------------0---|--------------3-0-------|
|----------------|1---------------|------------------3-1---|
|----------------|----------------|----------------------3-|
 
 |       |       |        |       |       |        
|----------------2---4---|5h--4---2---2h--0-------|
|------------------------|--------------------3---|
|------------------------|------------------------|
|------------------------|2-----------0-----------|
|------------------------|------------------------|
|0-----------------------|------------------------|
 
 |       |       |        |       |       |        
|--------0---------------|--------0---------------|
|2---3-------3---2---0---|2h--3-------3---2---0---|
|------------------------|------------------------|
|------------------------|------------------------|
|0-----------------------|------------2-----------|
|------------3-----------|2-----------------------|
 
 |       |       |        |       |       |        
|----------------2---4---|--------0---------------|
|2-----------------------|2h--3-------3---2---0---|
|------------------------|------------------------|
|------------4-----------|------------4-----------|
|1-----------------------|1-----------------------|
|------------------------|------------------------|
 
 |       |       |        |       |       |        
|--------0---------------|--------0---------------|
|2h--3-------3---2---0---|2h--3---3---------------|
|------------4-----------|3-------3---------------|
|2-----------------------|------------------------|
|------------------------|------------------------|
|------------------------|------------------------|
 
 |       |       |        |       |       |        
|----------------2---4---|5h--4---5---7h--5---12--|
|3-----------------------|------------------------|
|3-----------------------|------------------------|
|0-----------------------|2-----------0-----------|
|------------------------|------------------------|
|2-----------------------|------------------------|
 
 |       |       |        |       |       |        
|12----------------109---|14----1210--10--9-------|
|------------------------|--------------------12--|
|------------------------|------------------------|
|------------------------|0-----------------------|
|------------------------|------------11----------|
|9-----------------------|------------------------|
 
 |       |       |        |       |       |       |        
|9-----------------------|5h------2---0-------------------|
|------1210--12--10------|--------------------3-------3---|
|--------------------12--|------------------------2-------|
|------------------------|0-------------------------------|
|12----------10----------|--------------------------------|
|------------------------|--------------------------------|
 
 |       |       |       |        |       |       |       |        
|5h------2---0-------------------|5h------2---0-------------------|
|--------------------3---0h3h0---|--------------------3-------3---|
|0-------------------------------|------------------------2-------|
|--------------------------------|0-------------------------------|
|--------------------------------|--------------------------------|
|--------------------------------|--------------------------------|
 
 |       |       |       |        |       |       |        
|5h------2---0-------------------|--0---0-------0-------0-|
|--------------------3---0h3h0---|--2---2-------2-------2-|
|0-------------------------------|--3---3---3---3---3---3-|
|--------------------------------|--4---4-------4-------4-|
|--------------------------------|--4---4-------4-------4-|
|--------------------------------|------------------------|
 
 |       |       |        |       |       |       |        
|--0---0-------0-------0-|--0---0-------0---------0-------|
|--2---2-------2-------2-|--2---2-------2---------2-------|
|--3---3---3---3---3---3-|--3---3---3---3---3-----3-------|
|--4---4-------4-------4-|--4---4-------4---------4-----4-|
|--4---4-------4-------4-|--4---4-------4---------4-------|
|------------------------|--------------------------------|
 
 |       |       |        |       |       |        
|----------------------3-|--2---2-------2-------2-|
|--------------2---3-----|------3---3---3---3-----|
|------3---4-------------|------4---4---4---4-----|
|--5---------------------|----------4---4---4-----|
|------------------------|--2-------2-------2-----|
|------------------------|------------------------|
 
 |       |       |        |       |       |        
|--2---3---5---3h2-0-----|--3---5---7---5---3---0-|
|----------------------3-|------------------------|
|------------------------|--0---------------------|
|------------------------|------------------------|
|--0---------------------|------------------------|
|------------------------|------------------------|
 
 |       |       |        |       |       |       |        
|----------------------0-|--------------------------2---4-|
|--3---2---0---2h--3-----|--3---2---0---2-----------------|
|------------------------|--------------------------------|
|------------------------|----------------------4---------|
|------------------------|--2-----------1-----------------|
|--3-----------2---------|--------------------------------|
 
 |       |       |        |       |       |        
|--5h--4---2---2h--0-----|----------0-------------|
|----------------------3-|--2---3-------3---2---0-|
|------------------------|------------------------|
|--2-----------0---------|------------------------|
|------------------------|--0---------------------|
|------------------------|--------------3---------|
 
 |       |       |        |       |       |    
|----------0-------------|--------------2---4-|
|--2h--3-------3---2---0-|--2-----------------|
|------------------------|--------------------|
|------------------------|----------4---------|
|--------------2---------|--1-----------------|
|--2---------------------|--------------------|
 
 |       |        |       |       |       |    
|----------2---4-|--5h--4---5---7h--5h--12--12|
|--2-------------|----------------------------|
|----------------|----------------------------|
|------4---------|--2-----------0-------------|
|--1-------------|----------------------------|
|----------------|----------------------------|
 
 |       |       |        |       |       |        
|--12--------------10--9-|--14--12--10--10--9-----|
|------------------------|----------------------12|
|------------------------|------------------------|
|------------------------|--0---------------------|
|------------------------|--------------11--------|
|--9---------------------|------------------------|
 
 |       |       |        |       |       |       |        
|--9---------------------|--5---4h3h2---0-----------------|
|------12--10--12--10----|----------------------3-------3-|
|----------------------12|--------------------------2-----|
|------------------------|--0-----------------------------|
|--12----------10--------|--------------------------------|
|------------------------|--------------------------------|
 
 |       |       |       |        |       |       |       |        
|--5---5h3h2h--0-----------------|--5---5h3h2h--0-----------------|
|----------------------3---0h3h0-|----------------------3-------3-|
|--0-----------------------------|--------------------------2-----|
|--------------------------------|--0-----------------------------|
|--------------------------------|--------------------------------|
|--------------------------------|--------------------------------|
 
 |       |       |       |        |       |       |       |        
|--5---5h3h2h--0-----------------|--5---5h3h2h--0-----------------|
|----------------------3---0h3h0-|----------------------3-------3-|
|--0-----------------------------|--------------------------2-----|
|--------------------------------|--0-----------------------------|
|--------------------------------|--------------------------------|
|--------------------------------|--------------------------------|
 
 |       |       |       |        |       |       |       |        
|--5---5h3h2---------------------|--------------------------------|
|--------------------------3h2h0-|--------------------------------|
|--0-----------------------------|----------4-2-0-----------------|
|--------------------------------|--------------------------4h2h0-|
|--------------------------------|--------------------------------|
|--------------------------------|--------------------------------|
 
 |       |       |       |        |       |       |       |   FIn  
|--------------------------------|--------------------------------|
|----------------------3---------|--------------------------------|
|------------------2-------------|--------------------------------|
|--------------0-----------------|--------------------------------|
|----------2---------------------|--------------------------------|
|--------------------------------|--------------2-----------------|
 

pompom020366@hotmail.com          pompom@sympatico.ca
comments
We did not receive enough feedback on this tab! Please rate:
print report bad tab
1 2 3 4 5
I want to post or [tab]
guest
You may want to rate the tab now too:
select rating
Please do not post tabs as comments. Select "correction" instead!