Oops, an error
Loading. Please wait.

Surface Tension Tab

ver1
ver1

Whole song

Interactive

More versions @911Tabs.com
2,147 views 1 this week
no commentswrite comment
1 2 3 4 5
excellent!
x 1
Autoscroll
+/-
esc
set tempo
stop
Hey! There's an official Ultimate Guitar app which is ideal
for learning songs when you're away from computer. Get the app
WARNING: You are trying to view
                                    content from Ultimate-Guitar.com
                                    in an unauthorized application,
                                    which is prohibited.

                                    Please use an official Ultimate
                                    Guitar Tabs application for iPhone,
                                    iPad or Android to access legitimate
                                    chords, guitar, bass, and drum tabs
                                    from Ultimate-Guitar.com database.

                                    Type "ultimate guitar tabs" in Apple
                                    App Store's or Android Market's
                                    search to find the application.
#----------------------------------PLEASE NOTE---------------------------------#
#This file is the author's own work and represents their interpretation of the #
#song. You may only use this file for private study, scholarship, or research. #
#------------------------------------------------------------------------------##
From: surfer@beta.hut.fi (Riku Lindstr|m)
Subject: Surface Tension - Steve Howe

SURFACE TENSION - STEVE HOWE

4/4 C#m            2/4 Em    4/4       Bm       2/4 Dm    4/4 Am
E-4--2-0------------/-3--2--0-/-2--0-------------/-1--0--3-/-0-1-0--------------/
B---------4-5-4--2--/-0-------/------3--2-3-2--0-/-3-------/-------3-1-0-1-0----/
G-------------------/-0-------/------------------/-2-------/------------------2-/
D----4-----------4--/---------/----4-----------4-/-0-------/-------2----------2-/
A-4-----------------/---------/-2----------------/---------/-0------------------/
E---------2---------/-0-------/---------2--------/---------/-----------0--------/

2/4 Cm   4/4 G             D                             C
E---------/--------3-5-7-/-2-3-5-3-2--2-3-5-3-2--------/----0---------0-2-3-/
B-4--3--1-/-0------------/-----------------------3-----/------1-------------/
G-4-------/-0------------/-------------------------2---/--------0-----------/
D-5-------/--------------/-0-------------------------4-/----------2---------/
A-3-------/--------------/-----------------------------/-3----------3-------/
E---------/-3-3-3--------/-----------------------------/--------------------/

  G/B                 Am                    G/B    Am     G      D7/F#
E----0--------------/-------------------0-/----------------------------/
B-3-----3-0---------/----1--------1-1-3---/-3------1------0------------/
G-----------0-------/------2--------------/---0------2------0------2---/
D--------------0----/--------2--2---------/-----0------2------0------0-/
A-2---------------2-/-0---------0---------/-2------0-------------------/
E-------------------/---------------------/---------------3------2-----/

  G                  D                        C                  G/B
E------------3-5-7-/-10--8--7--14-15-14-----/-0---------0--2-3-/----0------------------/
B------------------/---------------------12-/---1--------------/-3----3--0-------------/
G------------------/------------------------/-----0------------/-----------------------/
D-----0------------/------------------------/-------2----------/-----------------------/
A-------2----------/------------------------/-3-------3--------/-2-------2-2-5-3-2-----/
E-3-------3--------/------------------------/------------------/-----------------------/

        Am                  G      Am     C    Am     G/B Am G D7/F#  Em
E-------------------------/--------------------------/-------------/--------/
B--------------1----1-3-5-/-3------1------0----1-3-5-/-3--1--0-----/--------/
G----------------2--------/---0------2---------------/-0--2--0--2--/--0-----/
D-----------0-------------/-----0------2----2--------/-0--2--0--0--/--2-----/
A-2-3-2-0-----------0-----/-2------0-----------0-----/-2--0--2--0--/--2-----/
E-------------------------/---------------3----------/-------3--2--/--0-----/

  A                     G          D7/F#         G             2/4 D
E-9--10--9-10-9--7--9-/------------------------/-----3----3-5-7-/-10--8--7-/
B---------------------/-3-------0--------------/-------0--------/----------/
G---------------------/---0---0------2-----2---/----------0-2-4-/----------/
D---------------------/-----0------------0---0-/---0------------/----------/
A---------------------/-2----------------------/----------------/----------/
E---------------------/------------2---2-------/-3--------------/----------/


3/4                   Cmaj7   4/4 G                             Am
E-15-17-15-14-14-12-/-0--------/---------------------/------------------/
B-------------------/-0--------/------------0--3-1-0-/-0-1-0------1-3-5-/
G-------------------/-0--------/---------------------/-------2----------/
D-------------------/-2--2-4-5-/-0--2--0-------------/------------------/
A-------------------/-3--------/----------2----------/----------0-0-----/
E-------------------/----------/---------------------/------------------/

 G/B     Am     G    Am     G/B Am G           G/B Am G D7/F#   Em
E--------------------------/----------8-10-12-/-------------/---------/
B-3------1------0----1-3-5-/-3--1--0----------/-3--1--0-----/---------/
G---0------2------0--------/-0--2--0----------/-0--2--0--2--/---0-----/
D-----0------2-------------/-0--2--0----------/-0--2--0--0--/---2-----/
A-2------0-----------0-----/-2--0--2--0-------/-2--0--2--0--/---2-----/
E---------------3----------/-------3----------/-------3--2--/---0-----/

  A                Em          A
E----------------/-7-3-0-----/-9--10-9-10-9--7--9-/-10--------------------------/
B-2--3-2-3-2-0-2-/-------0---/--------------------/----12---12-12-11-12-11-11-9-/
G-2--------------/-----------/--------------------/-------0---------------------/
D-2--------------/-----------/--------------------/-----------------------------/
A-0--------------/-----------/-0------------------/-10--------------------------/
E----------------/-----------/--------------------/-----------------------------/

  D13                Dm                       A           D13
E-14--12--10--9--7-/-13--12--10--9-10-9-----/-----------/-14--12--10--9--7-/
B-12---------------/-10------------------10-/-10--------/-12---------------/
G-11---------------/-10---------------------/----9-9--9-/-11---------------/
D-0----------------/-0----------------------/-----------/-0----------------/
A------------------/------------------------/-----------/------------------/
E------------------/------------------------/-----------/------------------/

  Dm       A          Dm A        Dm                 A
E-1--0--------------/-----------/-1--0-------------/---------5-7-/
B-3-----3--2-3-2----/-----------/-3-----3--2-3-2---/-------------/
G-2---------------2-/-2---------/-2--------------2-/-2-----------/
D-0-----------------/----2-2----/-0----------------/----2-2------/
A----------0--------/---------0-/------------------/-------------/
E-------------------/-----------/------------------/-------------/

Tempo (slightly slower)                                Tempo (slightly slower)
  A             D              E                       D              A
E-9-9-9--9-7-5--7-9-7--5-4-2-/-2-4-2-0-----------2-4-/-5-4-2--5-4-2-0----10-12----/
B----------------------------/------------0----------/----------------2-----------/
G----------------------------/----------1------------/----------------2-----------/
D---------------0------------/--------------3--4-----/----------------2-----------/
A----------------------------/-----------------------/----------------0-----------/
E----------------------------/-0---------------------/----------------------------/

  D                   G
E-14-14-14--14-12-10--12-14-12--10-9-7-/-7-9-7-5--5---0------7-9-/
B--------------------------------------/------------2------0-----/
G--------------------------------------/----------------3--------/
D--------------------------------------/-------------------------/
A--------------------------------------/-0-----------------------/
E--------------------------------------/-------------------------/

Tempo
5/8                 3/8           3/4 G       A  Bm 2/4 G     D      G      D
E-10-9-7-10-9-7------/-10-9-7------/-10-9-7-5-----2--/-10-9-7------/-10-9-7------/
B---------------10-7-/--------10---/-----------1-----/--------10---/-12-----10-7-/
G--------0-----------/-0---------7-/-0---------------/-0---------7-/-0-----------/
D-7----------------0-/-----------0-/-----------------/-----------0-/-----------0-/
A--------------------/-------------/-----------0--2--/-------------/-------------/
E--------------------/-------------/-----------------/-------------/-------------/

  C      A7   3/4 Bm              Bb  Am Gm   F         7/8              Dm Am7
E-10-9-7-----9-/----10-10-10-10-/-10--8--6--/-5----------/-5-6-5---5-----/-1-0-/
B-12-----10----/-3--------------/-----------/------6--8--/-------8---6-8-/-----/
G-0----------9-/----------------/-----------/------------/---------------/-2-0-/
D--------------/----------------/-8---7--5--/------------/---------------/-----/
A--------------/-2--------------/-----------/------------/---------------/-----/
E--------------/----------------/-----------/------------/---------------/-----/

3/4 Dm  A11   Bb  C  Bb  C 2/4        3/8       3/4 D               3/8 G
E--1----10--/-10--12-13--15-/----------/---------/-------3-0-2-0-----/-----------/
B-----------/---------------/-0--1--0--/---------/---------------3-5-/-----------/
G-----------/---------------/-0--2--0--/-0--2--4-/-5-4-2-------------/-5-4-2-0-0-/
D--0----7---/-8---10-12--14-/-0--2--0--/---------/-0-----------------/-----------/
A-----------/---------------/-2--0--2--/---------/-------------------/-----------/
E-----------/---------------/-3-----3--/---------/-------------------/-----------/

2/4 G C  G  3/8     3/4 D                     3/8         2/4        3/8
E--7--8--10--/-3-5-7-/-8-7-5-15-12-14-12-10-12-/-8-7-5-----/----------/-------/
B--0--0--0---/-------/-------------------------/-------8-8-/-0--1--0--/-------/
G--7--9--0---/-------/-------------------------/-----------/-0--2--0--/-0-2-4-/
D------------/-------/-0-----------------------/-----------/-0--2--0--/-------/
A------------/-------/-------------------------/-----------/-2--0--2--/-------/
E------------/-------/-------------------------/-----------/-3-----3--/-------/

3/4 D              3/8         2/4 G C  G  3/8     4/4 Am
E-------3-0-2-0-----/-----------/-7--8--10--/-3-5-7-/-12--10-8--7--5-/
B---------------3-5-/-----------/-0--0--0---/-------/-10-------------/
G-5-4-2-------------/-5-4-2-0-0-/-7--9--0---/-------/-9--------------/
D-0-----------------/-----------/-----------/-------/-10-------------/
A-------------------/-----------/-----------/-------/----------------/
E-------------------/-----------/-----------/-------/----------------/

              Tempo
2/4 Cm                  3/8     3/4 D               3/8 G       2/4 G C  G
E-12--10--8-7-/----------/-------/-------3-0-2-0-----/-----------/-7--8--10--/
B-8-----------/-0--1--0--/-------/---------------3-5-/-----------/-0--0--0---/
G-9-----------/-0--2--0--/-0-2-4-/-5-4-2-------------/-5-4-2-0-0-/-7--9--0---/
D-10----------/-0--2--0--/-------/-0-----------------/-----------/-----------/
A-------------/-2--0--2--/-------/-------------------/-----------/-----------/
E-------------/-3-----3--/-------/-------------------/-----------/-----------/

3/8    4/4                 2/4           4/4 Am             2/4 Cm
E-3-5-7-/-14--12--10--9--7--/-13--12--10--/-12--10--8--7--5--/-11--10--8--/
B-------/-12----------------/-10----------/-10---------------/------------/
G-------/-11----------------/-10----------/-9----------------/-8---7---5--/
D-------/-0-----------------/-0-----------/-10---------------/------------/
A-------/-------------------/-------------/-0----------------/------------/
E-------/-------------------/-------------/------------------/------------/

  G  Am G  D                     D7                        Cmaj7
E-------------/-3--3-3-3-3-5-7-/-10--8--7--14-15-14------/-0--0-0-0-2-3-/
B-0--1--------/-0--0-0-0-------/---------------------10--/-0--0-0-------/
G-0--2--0--2--/-0--0-0-0-------/-------------------------/-0--0-0-------/
D-0--2--0--0--/-0--0-0-0-------/-0-----------------------/-2--2-2-------/
A-2--0--2--0--/-2--2-2-2-------/-------------------------/-3--3-3-------/
E-3-----3--3--/-3--3-3-3-------/-------------------------/--------------/

  G/B                  2/4 Am         5/8              G/B    Am     G   Am
E----0------------------/--------------/-----------0-/-------------------8-10-12-/
B-3-----3-0-12-15-13-12-/-12-13-12-10--/-1-----1-3---/-3------1------0-----------/
G-----------------------/--------------/---2---------/---0------2------0---------/
D-----------------------/--------------/-----2-------/-----0------2--------------/
A-2---------------------/--------------/-0-----0-----/-2------0-----------0------/
E-----------------------/--------------/-------------/---------------3-----------/

                                  let ring
 G/B Am G  Am       G/B Am G D/F#  G
E----------8-10-12-/-------------/----------------/-3----/
B-3--1--0----------/-3--1--0-----/-------------0--/------/
G-0--2--0----------/-0--2--0--2--/----------0-----/------/
D-0--2--0----------/-0--2--0--0--/-------0--------/------/
A-2--0--2--0-------/-2--0--2--0--/----2-----------/------/
E-------3----------/-------3--2--/-3--------------/------/
comments
We did not receive enough feedback on this tab! Please rate:
print report bad tab
1 2 3 4 5
I want to post or [tab]
guest
You may want to rate the tab now too:
select rating
Please do not post tabs as comments. Select "correction" instead!