Oops, an error
Loading. Please wait.

The Joker Tab

ver1
ver1

Intro

Whole song

Interactive

Video

More versions @911Tabs.com
76,055 views 74 this week
3 commentsread comments
1 2 3 4 5
accurate
x 14
Autoscroll
+/-
esc
set tempo
stop
Hey! There's an official Ultimate Guitar app which is ideal
for learning songs when you're away from computer. Get the app
WARNING: You are trying to view
                                    content from Ultimate-Guitar.com
                                    in an unauthorized application,
                                    which is prohibited.

                                    Please use an official Ultimate
                                    Guitar Tabs application for iPhone,
                                    iPad or Android to access legitimate
                                    chords, guitar, bass, and drum tabs
                                    from Ultimate-Guitar.com database.

                                    Type "ultimate guitar tabs" in Apple
                                    App Store's or Android Market's
                                    search to find the application.
#----------------------------------PLEASE NOTE--------------------------------#
#This file is the author's own work and represents their interpretation of the#
#song. You may only use this file for private study, scholarship, or research.#
#-----------------------------------------------------------------------------#
#-- File created with Instab - http://www.pconline.com/~smcarey/instab.html --#
#-----------------------------------------------------------------------------#

Author/Artist: steve miller band
Title: the joker intro
Transcribed by: me
Email: derrickbrant@mpinet.net

this intro is real simple

------------------------------------------------------------------------------|
------------------------------------------------------------------------------|
------------------------------------------------------------------------------|
------------0h200-------------------------------------------------------------|
-----0h-233--------023333220--------------------------------------------------|
--33--------------------------------------------------------------------------|
       palm mute

------------------------------------------------------------------------------|
------------------------------------------------------------------------------|
------------------------------------------------------------------------------|
------------------------------------------------------------------------------|
------------------------------------------------------------------------------|
-----33-----5h7-88---10h121010---578888775------------------------------------|
         heres another way
comments
print report bad tab
3 comments total.
-1 reply
buzzlastyear wrote on March 28 2008, 05:52 pm

very close but for the last thing you've got it a tiny bit wrong- it's this-

------------
------------
------------
-----------0
-0-23333320-
------------

0 reply
ferzulo69 wrote on January 17 2010, 05:01 am

Good Job dudeā€¦ Really Good Job!!!

-1 reply
jmcote14 wrote on February 24 2014, 08:45 am

I never do this but it's like this.

-------------------------------
-------------------------------
-------------------------------
-------------------------------
----11---3h5---33--------------
-11----3h5---------356666530---

I want to post or [tab]
guest
You may want to rate the tab now too:
select rating
Please do not post tabs as comments. Select "correction" instead!