Oops, an error
Loading. Please wait.

Leprechaun Promenade Tab

ver1
ver1

Whole song

Interactive

More versions @911Tabs.com
426 views 1 this week
no commentswrite comment
1 2 3 4 5
please rate
Autoscroll
+/-
esc
set tempo
stop
Contributor
NEW! There's an official Ultimate Guitar app which is ideal
for learning songs when you're away from computer. Get the app
WARNING: You are trying to view
                                    content from Ultimate-Guitar.com
                                    in an unauthorized application,
                                    which is prohibited.

                                    Please use an official Ultimate
                                    Guitar Tabs application for iPhone,
                                    iPad or Android to access legitimate
                                    chords, guitar, bass, and drum tabs
                                    from Ultimate-Guitar.com database.

                                    Type "ultimate guitar tabs" in Apple
                                    App Store's or Android Market's
                                    search to find the application.
HottestTabs [http://www.hottesttabs.com]
E|-3-3-3-3-3-3-4-4-4-4-4-4-|-5-5-5-5-5-5-6-6-6-6---8-|---------------------|---|
B|-3-3-3-3-3-3-4-4-4-4-4-4-|-6-6-6-6-6-6-6-6-6-6---8-|---------------------|---|
G|-5-5-5-5-5-5-5-5-5-5-5-5-|-5-5-5-5-5-5-8-8-8-7---9-|---5---------5-------|-5-|
D|-------------------------|-------------------------|---------------------|---|
A|-3-3-3-3-3-3-3-3-3-3-3-3-|-3-3-3-3-3-3-3-3-3-3-3-3-|-3---3-3-3-3---3-3-3-|---|
E|-------------------------|-------------------------|---------------------|---|

E|-----------------------|-------------------------|--------------------------|
B|-----------------------|-------------------------|--------------------------|
G|---------5-------------|-------------------------|--------------------------|
D|-------------------0-2-|-------2---------2-------|-2---------2---------3-5--|
A|-3-3-3-3---3-3-3-3-----|-------------------------|--------------------------|
E|-----------------------|-0-0-0---0-0-0-0---0-0-0-|---0-0-0-0---0-0-0-0------|

E|-------------------------|-------------------------|-------------------------|
B|-------------------------|-------------------------|-------------------------|
G|-------5---------5-------|-5---------5-------------|-------------------------|
D|-------------------------|---------------------0-2-|-------2---------2-------|
A|-3-3-3---3-3-3-3---3-3-3-|---3-3-3-3---3-3-3-3-----|-------------------------|
E|-------------------------|-------------------------|-0-0-0---0-0-0-0---0-0-0-|

E-|-------------------------|-||---7---5--|-3---1---|--4---2--|-0---------||---|
B-|-------------------------|-||*--8---6--|-3---1---|--5---3--|-1--3-----*||---|
G-|-------------------------|-||---7---5--|-4---2---|--4---2--|-0--3------||---|
D-|-2---------2---------3-5-|-||----------|---------|---------|----3------||---|
A-|-------------------------|-||*---------|---------|---------|----------*||---|
E-|---0-0-0-0---0-0-0-0-----|-||----------|---------|---------|-----------||---|


G G F F F F Bb Bb Bb


E|---------9-14--12--9h12p9-|-------------------------------|-------------|----|
B|---10-12------------------|--12----10--12-----------------|-------------|----|
G|-9------------------------|-----12----------11----9-------|-------------|----|
D|--------------------------|--------------------12----12\9-|---7---------|----|
A|--------------------------|-------------------------------|-------------|----|
E|--------------------------|-------------------------------|-------------|----|


Eb Eb


E|-------|------------7-8--10-----|--13-(13)p12p10--------------------------|--|
B|-------|-----7---10----------10-|----------------13-12---------10~--------|--|
G|-------|---7--------------------|----------------------12b14--------------|--|
D|-------|------------------------|-----------------------------------------|--|
A|-------|------------------------|-----------------------------------------|--|
E|-------|------------------------|-----------------------------------------|--|


Asus2 F/A D/A Gsus4/A G/A A5


E|-------------------------|-------------------------|--------------17-17---12--|h
B|-------------------------|-------------------------|-----14-15-17-------------|
G|-------------------------|-------------------------|--14----------------------|
D|-------------------------|-------------------------|--------------------------|
A|-------------------------|-------------------------|--------------------------|
E|-------------------------|-------------------------|--------------------------|


G F E6


E|-14p12-|----------------------------|--------------|-----------|----------7-8-|
B|-------|--15-12-14-15--12-------12--|--------------|-----------|----7--10-----|
G|-------|------------------12-14-----|--14----------|-----------|--7-----------|
D|-------|----------------------------|--------------|-----------|--------------|
A|-------|----------------------------|--------------|-----------|--------------|
E|-------|----------------------------|--------------|-----------|--------------|

E|--10-----|--13-(13)p12p10---------17b19---17~|----4------2---|-0----------|--|
B|------10-|----------------13-12--------------|----5------3---|-0-----3----|--|
G|---------|-----------------------------------|----4------2---|-1-----2----|--|
D|---------|-----------------------------------|---------------|-------4----|--|
A|---------|-----------------------------------|---------------|------------|--|
E|---------|-----------------------------------|---------------|------------|--|

E|-----------|------------|-4----2---|-0---------|-----------|------------|----|
B|--6----4---|-2-----0----|-5----3---|-0----3----|--6----4---|----2-------|----|
G|--6----4---|-2-----0----|-4----2---|-1----2----|--6----4---|----2----0--|----|
D|--6----4---|-2-----0----|----------|------4----|--6----4---|----2----0--|----|
A|-----------|------------|----------|-----------|-----------|------------|----|
E|-----------|------------|----------|-----------|-----------|------------|----|

E|----------4--------2---7-|--5---4---------|-----4------2-----|---5----4--------|
B|----------5--------3---8-|--6-7-5---------|-----5------3---8-|---6-7--5--------|
G|----------4--------2---7-|--5-7-4---------|-----4------2---7-|---5-7--4--------|
D|-------------------------|----7-----------|----------------7-|-----7-----------|
A|----------------7--------|------2--3---5--|-6----------------|-----------------|
E|----0-0-0-0-0-0----------|----------------|-----0---1----2---|-3------4--5--7--|

E-|-------------------------|------------------------------------13-(20)--15-(22)b24-|
B-|-------------------------|-----------------10-(17)-13b15-(20)---------------------|
G-|---14--r-b2-----r--------|---------10-(17)----------------------------------------|
D-|-----------------10-(17)-|-10-(17)------------------------------------------------|
A-|-------------------------|--------------------------------------------------------|
E-|-------------------------|--------------------------------------------------------|

E-|-------------------|-------------|-------------------------|----------------|
B-|-------------------|----------12-|---(12)b13--r------12----|----------------|
G-|-------------------|-------------|----------------12-------|----------------|
D-|-------------------|-------------|----------------------14-|-14b15------r12-|
A-|-------------------|-------------|-------------------------|----------------|
E-|-------------------|-------------|-------------------------|----------------|

E|---------|-------------------5---8--|---------------|-8h10p11p10p8------------|
B|---------|-5---5-7---7-8-5-8---7----|-----8--\------|--------------11-8h11----|
G|---------|---5-----8-------------7--|-----7--\------|-------------------------|
D|---------|-----------------------5--|-----5--\------|-------------------------|
A|-12~-----|--------------------------|---------------|-------------------------|
E|---------|--------------------------|---------------|-------------------------|

E|-------|-----------------|-8-10-11p10p8--------------13-|----------------------|
B|-10-13-|-8--8-8-6-6-8--8-|--------------11-8h11--/10----|-6-6-6--4-4-6--8-8-10-|
G|-------|-8--8-8-6-6-8--8-|------------------------------|-6-6-6--4-4-6--8-8-10-|
D|-------|-8--8-8-6-6-8--8-|------------------------------|-6-6-6--4-4-6--8-8-10-|
A|-------|-6--6-6-4-4-6--6-|------------------------------|-4-4-4--2-2-4--6-6--8-|
E|-------|-----------------|------------------------------|----------------------|

E|--|-----8-10-11p10p8-----------------|------------------10-15-|-14-10-14-15p12p-|
B|--|------------------11-8h11--/10-13-|-8--8-8-6-6-8--8--------|-----------------|
G|--|----------------------------------|-8--8-8-6-6-8--8--------|-----------------|
D|--|----------------------------------|-8--8-8-6-6-8--8--------|-----------------|
A|--|----------------------------------|-6--6-6-4-4-6--6--------|-----------------|
E|--|----------------------------------|------------------------|-----------------|

E|-10-------10--|-----------------------------------|--------------------------|
B|----13-10-----|-------12--12-12-10-10-12--12------|--------------------------|
G|--------------|-------12--12-12-10-10-12--12------|-------------5------------|
D|--------------|-------12--12-12-10-10-12--12--3h5-|--------------------------|
A|--------------|-------10--10-10--8--8-10--10------|-3-3-3-3-3-3---3-3-3-3-3--|
E|--------------|-----------------------------------|--------------------------|

E|---------------------------|-------------------------|------------------------|
B|---------------------------|-------------------------|------------------------|
G|---------------------------|-------------------------|----------------------8-|
D|---------------1-1-1-2-2-2-|-------------------------|------------------------|
A|-3-3--3--5-5-5-------------|-------------------------|------0-2-2-2-3-3-3-5-5-|
E|---------------------------|-1-1-1-1-1-1-3-3-3-3-3-4-|-4-4--------------------|

E|----|-------------------------------|--------------------------|-------------|
B|----|-8-----------------------------|-----------------------10-|-11p10----10-|
G|-10-|---10-8-7---7----8-10-5b7--r---|-5~---------------2-12----|-------12----|
D|----|----------8---10-------------8-|-3~3-3-1-1-5--2---------4-|-------------|
A|--5-|-------------------------------|----------------3----5----|-------------|
E|----|-------------------------------|--------------------------|-------------|

E|-------10----------10-11-13-11-9-11-13-14-16-14-13-14-16-17-|-18--16--14--19~-|
B|-11-13----13-11-13------------------------------------------|-----------------|
G|------------------------------------------------------------|-----------------|
D|------------------------------------------------------------|-----------------|
A|------------------------------------------------------------|-----------------|
E|------------------------------------------------------------|-----------------|

E|--|-8h10p11p10p8-----------------|---------------------|-8-10-11p10p8---------|
B|--|--------------11-8h11--/10-13-|---------------------|--------------11-8h11-|
G|--|------------------------------|-----8---8-----8-----|----------------------|
D|--|------------------------------|---8---------8-------|----------------------|
A|--|------------------------------|-6-----4---6-----6---|----------------------|
E|--|------------------------------|---------------------|----------------------|

E|------13-|---------------------|-----8-10-11p10p8-----------------|-----------|
B|--/10----|---------------------|------------------11-8h11--/10-13-|-----------|
G|---------|-----6---6-------3---|----------------------------------|-----8---8-|
D|---------|---6---------6-----3-|----------------------------------|---8-------|
A|---------|-4-----2---4---6-----|----------------------------------|-6-----4---|
E|---------|---------------------|----------------------------------|-----------|

E|----------10-15-|-14-10-14-15p12p10-------10--|-------------------------|-----|
B|----------------|-------------------13-10-----|-------------------------|-----|
G|-----8----------|-----------------------------|-------------0-----0-----|-----|
D|---8------------|-----------------------------|-------0---3---5-----1-0-|-----|
A|-6-----6--------|-----------------------------|-----3---5-------1-------|-3-3-|
E|----------------|-----------------------------|-1-3---------------------|-----|

E|---------------------|-------------------------|-------------------------|---|
B|---------------------|-------------------------|-------------------------|---|
G|---5---------5-------|-5---------5-------------|-------------------------|---|
D|---------------------|---------------------0-2-|-------2---------2-------|-2-|
A|-3---3-3-3-3---3-3-3-|---3-3-3-3---3-3-3-3-----|-------------------------|---|
E|---------------------|-------------------------|-0-0-0---0-0-0-0---0-0-0-|---|

E|-----------------------|-------------------------|--------------------------|
B|-----------------------|-------------------------|--------------------------|
G|-----------------------|-------2---------2-------|-2---------2--------------|
D|---------2---------0-2-|-------------------------|---------------------0-2--|
A|-----------------------|-0-0-0---0-0-0-0---0-0-0-|---0-0-0-0---0-0-0-0------|
E|-0-0-0-0---0-0-0-0-----|-------------------------|--------------------------|

with backwards guitar fills

E|----------|------------|------|------|------|---------0-|----------|---------|
B|----------|------------|------|------|------|-5-------2-|---5----5-|---------|
G|----------|------------|------|------|------|-4-------2-|---2----4-|---------|
D|-4--3--2--|---1--------|------|------|------|-2-------0-|---4----2-|---------|
A|-5--4--3--|---2--------|------|------|------|-----------|----------|---------|
E|-5--6--3--|---4----0---|------|------|------|-----------|----------|---------|

E-|---------|--------0-|-----------|---------|-----------------|---------------|
B-|---------|--------2-|---5----2--|---------|-----------------|---------------|
G-|---------|--------2-|---2----2--|---------|-----------------|---------------|
D-|---------|--------0-|---4----0--|---------|-3-2p0-----------|---------------|
A-|---------|----------|-----------|---------|-------3-2p0-----|---------------|
E-|---------|----------|-----------|---------|-------------3-0-|---------------|

E|---------0-|----------|---------|---------|--------0-|-----------|----------|
B|-5-------2-|---5----5-|---------|---------|--------2-|---5----2--|----------|
G|-4-------2-|---2----4-|---------|---------|--------2-|---2----2--|----------|
D|-2-------0-|---4----2-|---------|---------|--------0-|---4----0--|----------|
A|-----------|----------|---------|---------|----------|-----------|----------|
E|-----------|----------|---------|---------|----------|-----------|----------|

with wah

E|---10---9--12-|----------------------|-------------|-12------------------|---9-|
B|---10--10--10-|---------15b17--------|-------------|-13------------------|--10-|
G|---11---9---9-|--9-9-----------12b13-|-9-9---------|-12------------------|---9-|
D|--------------|--9-9-----------------|-9-9---------|-14------------------|--12-|
A|--------------|--7-7-----------------|-7-7---------|---------------------|-----|
E|--------------|----------------------|-------------|--0-0-0--0--0-0-0--0-|---0-|

tape effects

E|------12-----------|-12-------12---------12~|----------------------------|---|
B|------10-----------|-14---------------------|----------------------------|---|
G|------11-----------|-13-------11---------13~|----------------------------|---|
D|-------------------|-14--------2\1----------|--------------2b4--r--------|---|
A|-------------------|--------4------2------4~|--------2-3-4-------5-4-2---|---|
E|-0-0---0--0-0-0--0-|--0-2-4----------2-0----|--2-3-4-------------------0-|---|

E|--------|--------------8-7----|-----------------|-------------13--12-----|----|
B|--------|----------7-8------8-|-7------7--------|-------12-13---------13-|-12-|
G|--------|--------9------------|---7-9----7---9--|----14------------------|----|
D|--------|------9--------------|------------9----|-14---------------------|----|
A|--------|---------------------|-----------------|------------------------|----|
E|--------|---------------------|-----------------|------------------------|----|

E|---------------------|--------------8--7--------|------------------|---------|
B|--------12-----------|----------7-8------8h12p8-|-7------7---------|---------|
G|-12-14-----12----14--|--------9-----------------|---7-9-----7---9--|------14-|
D|--------------14-----|------9-------------------|-------------9----|---14----|
A|---------------------|--------------------------|------------------|---------|
E|---------------------|--------------------------|------------------|---------|

E-------13--12-----------|------------------------|---19----19----19----20----20-|
B-12-13---------13h17p13-|-12--------12-----------|------------------------------|
G------------------------|----12-14------12----14-|------16----16----16----17----|
D------------------------|------------------14----|------------------------------|
A------------------------|------------------------|------------------------------|
E------------------------|------------------------|------------------------------|

E|----20-----|--21----21----21-----22----22----22----|---15~----------18-|--16-|
B|-----------|---------------------------------------|----------18-------|-----|
G|-17----17--|-----18----18----18-----19----19----19\|-------------------|-----|
D|-----------|---------------------------------------|-------------------|-----|
A|-----------|---------------------------------------|-------------------|-----|
E|-----------|---------------------------------------|-------------------|-----|

E|-----15~----------|----16~--------------19-|--17----16~----------------|------|
B|--18--------------|---------------19-------|-----19--------------------|------|
G|------------------|------------------------|---------------------------|-8-10-|
D|------------------|------------------------|---------------------------|------|
A|------------------|------------------------|---------------------------|------|
E|------------------|------------------------|---------------------------|------|

E|--------------------------------|--------------------------|-------------------|
B|--8-----------------------------|-----------------------10-|-11p10----10-11-13-|
G|----10-8-7---7----8-10-5b7--r---|-5~---------------2-12----|-------12----------|
D|-----------8---10-------------8-|-3~3-3-1-1-5--2---------4-|-------------------|
A|--------------------------------|----------------3----5----|-------------------|
E|--------------------------------|--------------------------|-------------------|

E|-10----------10-11-13-11-9-11-13-14-16-14-13-14-16-17-|-18--16--14-19p15-19--|
B|----13-11-13------------------------------------------|----------------------|
G|------------------------------------------------------|----------------------|
D|------------------------------------------------------|----------------------|
A|------------------------------------------------------|----------------------|
E|------------------------------------------------------|----------------------|

E|-20---18b20~------------------||--------------------------|-------------------|
B|------------------------------||*-------------------------|-------------------|
G|------------------------------||--------5---------5-------|-5---------5-------|
D|------------------------------||--------------------------|-------------------|
A|------------------------------||*-3-3-3---3-3-3-3---3-3-3-|---3-3-3-3---3-3-3-|
E|------------------------------||--------------------------|-------------------|

E|-------|-------------------------|-----------------------|-------------------|
B|-------|-------------------------|-----------------------|-------------------|
G|-------|-------3---------3-------|-3---------3-----------|-------------------|
D|---1-3-|-------------------------|-----------------------|-------3---------3-|
A|-3-----|-1-1-1---1-1-1-1---1-1-1-|---1-1-1-1---1-1-1-1-3-|-------------------|
E|-------|-------------------------|-----------------------|-1-1-1---1-1-1-1---|

E|-------|-------------------------|-----------------------------------|-------|
B|-------|-------------------------|-----------------------------------|-------|
G|-------|-------------------------|-----------------------------------|-------|
D|-------|-3---------3---------3-5-|-------5---------5-----------------|-----0-|
A|-------|-------------------------|-----------------------------------|---3---|
E|-1-1-1-|---1-1-1-1---1-1-1-1-----|-3-3-3---3-3-3-3---3-3-3-3-3-3-3-1-|-3-----|

repeat until end of song

E|------------------||-||--8h10p11p10p8-----------------|----------|-8-10-11p10p-|
B|-----------------*||-||*--------------11-8h11--/10-13-|----------|-------------|
G|-----0-----0------||-||-------------------------------|----------|-------------|
D|---3---5-----1-0--||-||-------------------------------|----------|-------------|
A|-5-------1-------*||-||*------------------------------|----------|-------------|
E|------------------||-||-------------------------------|----------|-------------|

E|-8--------------13-|--------------------|-----11-13-15p13p11---------------17-|
B|---11-8h11--/10----|--------------------|--------------------15-11h15--/13----|
G|-------------------|--------------------|-------------------------------------|
D|-------------------|--------------------|-------------------------------------|
A|-------------------|--------------------|-------------------------------------|
E|-------------------|--------------------|-------------------------------------|

E---|------------10-15-|-14-10-14-15p12p10-------10--|--------------------||---|
B---|------------------|-------------------13-10-----|-------------------*||---|
G---|------------------|-----------------------------|--------------------||---|
D---|------------------|-----------------------------|--------------------||---|
A---|------------------|-----------------------------|-------------------*||---|
E---|------------------|-----------------------------|--------------------||---|

E|------8-11p10-8-------------|-----------------------|-13----------------------|
B|-8h11-----------11p8/13~----|-----------13-15-16-17-|----17-16-15-13----------|
G|----------------------------|-----14-15-------------|----------------16-15-14-|
D|----------------------------|-----------------------|-------------------------|
A|----------------------------|-----------------------|-------------------------|
E|----------------------------|-----------------------|-------------------------|

E|------------------|-------------------|-15-18-17-15--------------------|-----|
B|------------------|----------------16-|-------------18-16b18-----------|-----|
G|-13-12------------|------------/17----|--------------------------------|-----|
D|-------15~--------|-------------------|--------------------------------|-----|
A|------------------|-------------------|--------------------------------|-----|
E|------------------|-------------------|--------------------------------|-----|

E|--------|-----------------------|--------|--------|----------15-18-|-18b20---|
B|--------|-----------------------|--------|--------|-15-16-18-------|---------|
G|--------|-----------0-----0-----|--------|--------|----------------|---------|
D|--------|-----0---3---5-----1-0-|--------|--------|----------------|---------|
A|--------|---3---5-------1-------|--------|--------|----------------|---------|
E|------1-|-3---------------------|--------|--------|----------------|---------|

E|--18~------|-----------|-----------|-------------|---------|----------*-|
B|-----------|-----------|-----------|-----13b15---|---------|----------*-|
G|-----------|-----------|-----------|-------------|---------|----------*-|
D|-----------|-----------|-----------|-------------|---------|----------*-|
A|-----------|-----------|-----------|-------------|---------|----------*-|
E|-----------|-----------|-----------|-------------|---------|----------*-|
comments
We did not receive enough feedback on this tab! Please rate:
print report bad tab
1 2 3 4 5
I want to post or [tab]
guest
You may want to rate the tab now too:
select rating
Please do not post tabs as comments. Select "correction" instead!