Oops, an error
Loading. Please wait.

Tumeni Notes Tab

11,080 views 21 this week
2 commentsread comments
1 2 3 4 5
excellent!
x 4
add to favorites launch autoscroll
font size
0
reset
Autoscroll
+/-
esc
set tempo
stop
WARNING: You are trying to view
                                    content from Ultimate-Guitar.com
                                    in an unauthorized application,
                                    which is prohibited.

                                    Please use an official Ultimate
                                    Guitar Tabs application for iPhone,
                                    iPad or Android to access legitimate
                                    chords, guitar, bass, and drum tabs
                                    from Ultimate-Guitar.com database.

                                    Type "ultimate guitar tabs" in Apple
                                    App Store's or Android Market's
                                    search to find the application.
#----------------------------------PLEASE NOTE---------------------------------#
#This file is the author's own work and represents their interpretation of the #
#song. You may only use this file for private study, scholarship, or research. #
#------------------------------------------------------------------------------#
#

Date: Fri, 12 Dec 1997 14:42:12 -0700
!From: alex pereira 
Subject: Re: TAB: Tumeni Notes by Steve Morse

			Tumeni Notes By Steve Morse
				Off the High tension wires Album
				Transcribed by Alex Pereira
                        al@leggett.k12.ca.us

                riff A
e||-----8-10-11|12-8---------7-10-7--------7-8-5-------5-7-3-------3-------|e
b||--10--------|-----10---10--------9----9-------5---5-------3---3---------|b
g||------------|--------9-------------10-----------5-----------4-----------|g
d||------------|-----------------------------------------------------------|d
a||------------|-----------------------------------------------------------|a
e||------------|-----------------------------------------------------------|e


e||-5-1-----3-1-----5-1-------8-5-------5------7-8-10-11-12-8---------7----|e
b||-----1-1-----1-1-----1-1-------7---7---8-10----------------10---10------|b
g||---------------------------------8----------------------------9---------|g
d||------------------------------------------------------------------------|d
a||------------------------------------------------------------------------|a
e||------------------------------------------------------------------------|e


e||10-7--------7-8-5-------5-13-8----------8--12-8------10-8------12-8-----|e
b||-----9----9-------6---6--------10----10---------8-8-------8-8-------8---|b
g||-------10-----------5-------------10------------------------------------|g
d||------------------------------------------------------------------------|d
a||------------------------------------------------------------------------|a
e||------------------------------------------------------------------------|e


e||--13-10-------15-10-------13-10-----------|e
b||8-------10-10-------10-10-------10-10-----|b
g||------------------------------------------|g
d||------------------------------------------|d
a||------------------------------------------|a
e||------------------------------------------|e


e||-12-8---------7-10-7--------7-8-5-------5-7-3-------3----|e
b||------10---10--------9----9-------5---5-------3---3------|b
g||---------9-------------10-----------5-----------4--------|g
d||---------------------------------------------------------|d
a||---------------------------------------------------------|a
e||---------------------------------------------------------|e
                                                      full
                                                       /
e||-5-1-----3-1-----5-1-----8-5-------5-------7-8-10-10---(10)-8-----------|e
b||-----1-1-----1-1-----1-1-----7---7---/8-10--------------------10---10---|b
g||-------------------------------8---------------------------------9------|g
d||------------------------------------------------------------------------|d
a||------------------------------------------------------------------------|a
e||------------------------------------------------------------------------|e

e||-7-10-7--------7-8-5-------5-13-8----------8--12-8-----10-8-----12-8----|e
b||--------9----9-------6---6--------10----10---------8-8------8-8---------|b
g||----------10-----------5-------------10---------------------------------|g
d||------------------------------------------------------------------------|d
a||------------------------------------------------------------------------|a
e||------------------------------------------------------------------------|e

                                              1/2~~~~~~~~~~~~
e||----13-10-------12-10--------16-12--------16/------------/3/(16)\-------|e
b||8-8-------10-10-------10-10/-------12-12-----------------/3-------------|b
g||------------------------------------------------------------------------|g
d||---------------------------------------------------------/5-------------|d
a||------------------------------------------------------------------------|a
e||---------------------------------------------------------/3-------------|e

This next part is so damn hard if your not good at sweep pickinU. good luck

 p.m.& sweep picking--------------------------------------------------------|
e||-------------------------------------------------------------------------|e
b||-------------------------------------------------------------------------|b
g||----------10--------------7--------------9--------7--------7-------5-----|g
d||-------10----10---------9---9---------10--------9---9----9-------7-------|d
a||----10----------10---10-------10---10--------10-------10-------7---------|a
e||--8----------------8-------------8---------8-----------------5-----------|e

  -------------------------------------------------------------------------
                                                                  1st end.
e||----------------------------------------------------------------|-------|e
b||----------------------------------------------------------------|-------|b
g||----------4-----------7-----------0------------2-------2-------4|-------|g
d||7-------5---5-------7---7-------2---2--------3-------4-------5--|-------|d
a||--7---7-------7---7-------7---2-------2----3-------5-------5----|--7----|a
e||----5-----------5-----------0------------1-------2-------3------|4------|e

   --------------------------------------------------]
                         2nd end.
e||---------------------||----------------------------||--3~~~~~~~~~-------|e
b||---------------------||----------------------------||--1~~~~~~~~~-------|b
g||--4-------6--------7-||--------4-------6---------7-||--0----------------|g
d||6-------7--------9---||------6------7----------9---||-------------------|d
a||------7-------10-----||---7--------7--------10-----||--3~~~~~~~~~-------|a
e||----5-------7--------||-4--------5-------7---------||-------------------|e

  Riff B
    full           full                      ...............   full
e||--/--6-6-6-6-6---/-----------------------/---------------\--------------|e
b||-9--------------8--(8)--6~~~~~~~~~~~~---8-------------------/~~~~~~~~---|b
g||--------------------------------------5--------------------7------------|g
d||------------------------------------------------------------------------|d
a||------------------------------------------------------------------------|a
e||------------------------------------------------------------------------|e

         full                full
e||-------/--11-11-11-11-13---/---------------------------10---------------|e
b||~~~--14------------------13---11~~~~~~~~~~~-----13~~~~----13-10---------|b
g||--------------------------------------------10------------------12-10---|g
d||------------------------------------------------------------------------|d
a||------------------------------------------------------------------------|a
e||------------------------------------------------------------------------|e


            full           full        full    1/2..    p
e||-------------------------/-------6--/-----6--/---\---^------------------|e
b||------------------------9----------9--------8-----(8)-6~~~~~~~~~~~~~~---|b
g||----------/-------------------------------------------------------------|g
d||-12-10---/--------------------------------------------------------------|d
a||-------12-------(12)\---------------------------------------------------|a
e||------------------------------------------------------------------------|e


      full... full..                  1/2
e||----/-----\/-----\-------------------------11----16----15--13-(13)-11---|e
b||---8-------------(8)~~~~~~~~~~~----/-11-11----11----11------------------|b
g||-5-------------------------------13-------------------------------------|g
d||------------------------------------------------------------------------|d
a||------------------------------------------------------------------------|a
e||------------------------------------------------------------------------|e


      full                            full
e||----/--------------------------------------12-13-15-13~~~~~~~~~~~~~~~---|e
b||--13---11~~~~~~---^---11-13~~~~~~~------13------------------------------|b
g||----------------10-12---------------/12---------------------------------|g
d||----------------------------------15------------------------------------|d
a||------------------------------------------------------------------------|a
e||------------------------------------------------------------------------|e


e||(13)~~~~~~~~~~~~~~~~~~(13)\----------------------------------------8----|e
b||---------------------------\-------------------------------9-10-12------|b
g||---------------------------------------------------9-10-12--------------|g
d||-------------------------------------------9-10-12----------------------|d
a||------------------------------------------------------------------------|a
e||------------------------------------------------------------------------|e

e||10-11--------12-8---------7-10-7--------7-8-5-------5-7-3-------3-------|e
b||------------------10---10--------9----9-------5---5-------3---3---------|b
g||---------------------9-------------10-----------5-----------4-----------|g
d||------------------------------------------------------------------------|d
a||------------------------------------------------------------------------|a
e||------------------------------------------------------------------------|e




                                                       full
e||-5-1-----3-1-----5-1------8-5-------5-------7-8-10-10/-(10)-8-----------|e
b||-----1-1-----1-1-----1-1------7---7---/8-10-------------------10---10---|b
g||--------------------------------8--------------------------------9------|g
d||------------------------------------------------------------------------|d
a||------------------------------------------------------------------------|a
e||------------------------------------------------------------------------|e


e||-7-10-7--------7-8-5-------5-13-8----------8--12-8-----10-8-----12-8----|e
b||--------9----9-------6---6--------10----10---------8-8------8-8---------|b
g||----------10-----------5-------------10---------------------------------|g
d||------------------------------------------------------------------------|d
a||------------------------------------------------------------------------|a
e||------------------------------------------------------------------------|e


e||----13-10-------12-10--------16-12-------16/~~~~~~~~~~~~~~~~~~~~~~~~~---|e
b||8-8-------10-10-------10-10/-------12-12--------------------------------|b
g||------------------------------------------------------------------------|g
d||------------------------------------------------------------------------|d
a||------------------------------------------------------------------------|a
e||------------------------------------------------------------------------|e


e||------------------------------------------------------------------------|e
b||------------------------------------------------------------------------|b
g||------------------0-----------------------------------------------------|g
d||------------0-1-2---2-1-0-----0------------------------------6-3--------|d
a||0-----0-2-3---------------2-3---3-2-0-----0------------3-4-5-----5-3----|a
e||--3-4---------------------------------3-4---4-3--1-3-5------------------|e


e||------------------------------------------------------------------------|e
b||------------------------------------------------------------------------|b
g||----------------------------------------------0-------------------------|g
d||7-3-----6-3-----5-3-2-------------------0-1-2---2-1-0-----0-------------|d
a||----5-3-----5-3-------5-3-2-0-----0-2-3---------------2-3---3-2-0-------|a
e||------------------------------3-4---------------------------------3-4---|e


e||------------------------------------------------------------------------|e
b||------------------------------------------------------------------------|b
g||-----------------2--------------2-----------------------------------0---|g
d||--------------5-------------4---------------------------------0-1-2-----|d
a||-0---------3------------5---------------5---7-----0-----0-2-3-----------|a
e||---4-3--1-----------2---------------3----------4----3-4-----------------|e


e||------------------------------------------------------------------------|e
b||------------------------------------------------------------------------|b
g||-----------------------------------------------------------------5-2----|g
d||-2-1-0-----0-----------------------------6-3-7-3-----6-3-5-3------------|d
a||-------2-3---3-2-0-----0---------0-3-4-5---------5-3---------4-3--------|a
e||-------------------3-4---4-3-1-3----------------------------------------|e


e||------------------------------------------------------------------------|e
b||--------------------------------------------------------4-3-------------|b
g||4-2-----------------------0-----------2-----4-2-5-2---------5-4-2-4-5---|g
d||----5-2-------------0-1-2---2-1-0-1-2---2-2---------2-2-----------------|d
a||--------0-----0-2-3-----------------------------------------------------|a
e||----------3-4-----------------------------------------------------------|e

                              let ring[------------------------------------|
e||------2-3-4-------------------------------------------------------------|e
b||3-4-5-------5-----------------------------------------------------------|b
g||--------------4-3-2-----0-1---------------------------------------------|g
d||--------------------3-4-----2-------------------------------------------|d
a||------------------------------2-1-0-------------------------------------|a
e||------------------------------------------------------------------------|e


   *Glide left hand over strings allowing ramdom
   artificial harmonics to ring out.
e||-----------------------------------------------------|e
b||-----------------------------------------------------|b
g||-----------------------------------------------------|g
d||-----------------------------------------------------|d
a||-x-x-x-x-x-x-x-x-x-x-x-x-x-x-x-x-x-x-x-x-x-x-x-x-----|a
e||-x-x-x-x-x-x-x-x-x-x-x-x-x-x-x-x-x-x-x-x-x-x-x-x-----|e


guitar solo                A.H.--------------------]
                               1/2                             1/4
e||-----------------------------/------------------------------------------|e
b||----------------------------4-------------------------------/-----------|b
g||---------------------------------3~~~~~~~~~~~~~~~-2---2----2------------|g
d||-4-----------4--------------------------------------4---------4--2------|d
a||-------------------------------------------------------------------4----|a
e||---2-2-2-2-2---2-2-2-2-2------------------------------------------------|e


                                                                     full
           1/2    A.H. full         P.M.---------------]              /----|
e||------------------------------------------------------------5-6-7-7-----|e
b||------------------------------------------------------5-6-7-------------|b
g||-p-p----/----------/\---------------------------4-5-6-------------------|g
d||-^-^---/----------/--\--------------------4-5-6-------------------------|d
a||3-2-0-2---0--2---/----\-------------4-5-6-------------------------------|a
e||---------------(5)---(5)~~~~~~~~~~~~------------------------------------|e
           A.H.pitch C#

        full                      grad.bend
 --\ a.h/                            1 1/2  1 1/2
e||(7)-7-(7)~~~~~~~~~~~~~~~~~~~~~~----/------/-----------------------------|e
b||---------------------------------14-----14---14---13---12---------------|b
g||------------------------------------------------------------14---13-----|g
d||------------------------------------------------------------------------|d
a||------------------------------------------------------------------------|a
e||------------------------------------------------------------------------|e


        semi-harmonic                          hold bend          hold bend
              2                                      -------\         -----|
e||--------------------------------------------10---/----10--\---9---/-----|e
b||-----p----/~~~~~~\------------------------------/----------\-----/------|b
g||-11--^--14---------11~~~~~~~~~~~-13-(13)\------9----------9-----8-------|g
d||---14-11---------------------------------\------------------------------|d
a||------------------------------------------------------------------------|a
e||------------------------------------------------------------------------|e


                                      A.H.                         full
  ---\                                   full                        /-----|
e||-7-\---6--------------------------------------------------------16------|e
b||----\---------------------------p---------------------------------------|b
g||---8-----8-6-4-----5-4----------^-----/~~~~~~~~~~~~~~~~~~---------------|g
d||---------------7-4-----7-4---4-7-4---/----------------------------------|d
a||---------------------------7--------7-----------------------------------|a
e||-----------------------------------------------------------/14----------|e
                             A.H.pitch B                     /

          p
  ----\   ^             full
e||---(16)--14-----14----/~~~~~~~~~~~~~~~~~~~~~~~~~-----14-16-------14-----|e
b||-------------17-----17--------------------------17---------16-17--------|b
g||------------------------------------------------------------------------|g
d||------------------------------------------------------------------------|d
a||------------------------------------------------------------------------|a
e||------------------------------------------------------------------------|e
                                                      full-----------------|
                                                   1/2/
                                                   /
e||16-17-18-17-16-14---14-----------14-16-17-18--19-----------(19)~~~~~~---|e
b||-----------------------17--16-17----------------------------------------|b
g||------------------------------------------------------------------------|g
d||------------------------------------------------------------------------|d
a||------------------------------------------------------------------------|a
e||------------------------------------------------------------------------|e

        p
  --\   ^                1 1/2~~~~~~~~~~~~~~~~~~~~~~         full
e||~(19)-17---------17----/------------------------------------------------|e
b||---------19--17------19---------------------------0--(0)---/~~~~~~`\----|b
g||----------------------------------------------------------4-------------|g
d||------------------------------------------------------------------------|d
a||------------------------------------------------------------------------|a
e||------------------------------------------------------------------------|e


                       1/2 1/2           A.H.1/2
e||---p----------------------------------------------------/~~~~~~~~~~~~---|e
b||\--^----p-----------/--/------------------------------17----------------|b
g||(4)--2--^----------2--2-------------------------------------------------|g
d||-------4-2-4-2--------------4-2----------/------------------------------|d
a||---------------4-4--------------4-3-2---/-------------------------------|a
e||---------------------------------------4---(4)~~~~~~~-------------------|e
                                A.H.pitch:D#


e||14----------------------------------------14----------------------------|e
b||---17-16-15-14-14----------------------14----14----------------14-x-----|b
g||------------------15-14-13-14-15-16-17----------17-16-15-16-17----------|g
d||------------------------------------------------------------------------|d
a||------------------------------------------------------------------------|a
e||------------------------------------------------------------------------|e

                    full                     1 1/2      p
                    /~~~~~~~~~~~~~~~~~~       /------\---------------------|  ^
e||------16-17-19-19-------------(19)\------21------(21)-17----21\19-16----|e
b||17-19------------------------------\---------------------17-------------|b
g||------------------------------------------------------------------------|g
d||------------------------------------------------------------------------|d
a||------------------------------------------------------------------------|a
e||------------------------------------------------------------------------|e

           p    full
           ^     /~~~~~~~~~~~\
e||---16-19-16-19----------------------------------------------------------|e
b||17--------------------------18-16---------------------------------------|b
g||----------------------------------18-16---------------------------------|g
d||----------------------------------------18-16--14-----------------------|d
a||--------------------------------------------------16-14-----------------|a
e||--------------------------------------------------------16~~~~~~~~~~----|e

e||----||e
b||----||b
g||----||g
d||----||d
a||----||a  THis next part I tryed to make the timeing as close as possible
e||16\-||e
     p
 G1  ^
e||-5-2-------2-7-2-------2-|----------------------------|e
b||-----3---3-------3---3---|----------------------------|b
g||-------2-----------4-----|--------%-------------------|g
d||-------------------------|----------------------------|d
a||-------------------------|----------------------------|a
e||-------------------------|----------------------------|e
 ||                                                   ||
 G2                                                   ||
 ||  PM-------]  PM-------]    PM-------]  PM-------] ||
e||-5-----------------------|-------------5-----------||e
b||-------------7-----------|-8-----------------------||b
g||---7-6-5-6-7---7-6-5-6-7-|---7-6-5-6-7---7-6-5-6-7-||g
d||-------------------------|-------------------------||d
a||-------------------------|-------------------------||a
e||-------------------------|-------------------------||e
 ||                                                   ||
 G3                                                   ||
 ||  PM-------]  PM-------]    PM-------]  PM-------] ||
e||-------------------------|-------------------------||e
b||-------------------------|-------------------------||b
g||-2-----------------------|-------------2-----------||g
d||-------------4-----------|-5-----------------------||d
a||---5-4-3-4-5---5-4-3-4-5-|---5-4-3-4-5---5-4-3-4-5-||a
e||-------------------------|-------------------------||e

   With fill 1    p                              P
 G1               ^                              ^
e||-8-5-------5-10-5-------5-|-8-5-7-5-----8-5-10-5-------|e
b||-----6---6--------6---6---|---------6-5---------6-5----|b
g||-------5------------7-----|----------------------------|g
d||--------------------------|----------------------------|d
a||--------------------------|----------------------------|a
e||--------------------------|----------------------------|e
 ||                                                    ||
 G2                                                    ||
 ||   PM-------]  PM-------]    PM-------]  PM-------] ||
e||-5------------------------|-6-----------5-----------||e
b||-------------6------------|-------------------------||b
g||---5-4-3-4-5---5-4-3-4-5--|---5-4-3-4-5---5-4-3-4-5-||g
d||--------------------------|-------------------------||d
a||--------------------------|-------------------------||a
e||--------------------------|-------------------------||e
 ||                                                    ||
 G3                                                    ||
 ||   PM-------]  PM-------]    PM-------]  PM-------] ||
e||--------------------------|-------------------------||e
b||--------------------------|-------------------------||b
g||-2------------------------|-3-----------2-----------||g
d||-------------3------------|-------------------------||d
a||---3-2-1-2-3---3-2-1-2-3--|---3-2-1-2-3---3-2-1-2-3-||a
e||--------------------------|-------------------------||e


With fill 2
 G1
e||--12-9---------9-14-9----------9--|--12-9---------9-14-9----------9-----|e
b||-------10---10--------10----10----|-------10---10--------10----10-------|b
g||----------9--------------11-------|----------9--------------11----------|g
d||----------------------------------|-------------------------------------|d
a||----------------------------------|-------------------------------------|a
e||----------------------------------|-------------------------------------|e
 ||                                                                     ||
 G2   PM--------]    PM--------]        PM-------------] PM------------]||
 ||                                                                     ||
e||---5--------------9---------------|-12---------------17-----------------|e
b||----------------------------------|-------------------------------------|b
g||-----6-5-4-5-6------9-8-7-8-9-----|----14-13-12-13-14--18-17-16-17-18---|g
d||----------------------------------|-------------------------------------|d
a||----------------------------------|-------------------------------------|a
e||----------------------------------|-------------------------------------|e
 ||                                                                     ||
 G3   PM--------]    PM--------]        PM------------] PM------------] ||
 ||                                                                     ||
e||----------------------------------|-------------------------------------|e
b||----------------------------------|-------------------------------------|b
g||---2--------------6---------------|-9---------------14------------------|g
d||----------------------------------|-------------------------------------|d
a||----4-3-2-3-4-------7-6-5-6-7-----|--12-11-10-11-12---16-15-14-15-16----|a
e||----------------------------------|-------------------------------------|e

with fill 3
G1
e||15-12----------12-17-12---------12|-15-12-14-14------15-12-17-12--------|e
b||------13----13----------13----13--|-------------13-12-----------13-12---|b
g||---------12----------------14-----|-------------------------------------|g
d||----------------------------------|-------------------------------------|d
a||----------------------------------|-------------------------------------|a
e||----------------------------------|-------------------------------------|e
 ||                                                                     ||
 G2 PM------------]  PM------------]   PM------------]  PM------------] ||
 ||                                                                     ||
e||----------------------------------|15---------------20------------------|e
b||13---------------17---------------|-------------------------------------|b
g||----------------------------------|--17-16-15-16-17---21-20-19-20-21----|g
d||--14-13-12-13-14---17-16-15-16-17-|-------------------------------------|d
a||----------------------------------|-------------------------------------|a
e||----------------------------------|-------------------------------------|e
 ||                                                                     ||
 G3  PM---------]  PM----------]       PM------------]  PM------------] ||
 ||                                                                     ||
e||----------------------------------|-------------------------------------|e
b||-8--------------------------------|13---------------17------------------|b
g||----------------9-----------------|-------------------------------------|g
d||---10-9-8-9-10----10-9-8-9-10-----|--14-13-12-13-14---17-16-15-16-17----|d
a||----------------------------------|-------------------------------------|a
e||----------------------------------|-------------------------------------|e

     full~~~~~~~~~~~~~~~~~~~~~~~~~~~~
G1    /full~~~~~~~~~~~~~~~~~~~~~~~~~~~~~~~~~~~~~~~~~
e||-17/------------------------------|(17)--------------------17-19-21-----|e
b||-15-------------------------------|---------------17-19-21--------------|b
g||----------------------------------|-------------------------------------|g
d||----------------------------------|-------------------------------------|d
a||----------------------------------|-------------------------------------|a
e||----------------------------------|-------------------------------------|e
 ||                                                                     ||
 G2                                                                     ||
 ||                                                                     ||
e||-19~~~~~~~~~~~~~~~~~~~~~~~~~~~~~~~|-------------------------------------|e
b||----------------------------------|------------------------14-15-17-----|b
g||----------------------------------|(15)~~~~~~~~~~-13-14-16--------------|g
d||----------------------------------|-------------------------------------|d
a||----------------------------------|-------------------------------------|a
e||----------------------------------|-------------------------------------|e
 ||                                                                     ||
 G3                                                                     ||
 ||                                                                     ||
e||----------------------------------|-------------------------------------|e
b||-17~~~~~~~~~~~~~~~~~~~~~~~~~~~~~~~|-------------------------------------|b
g||----------------------------------|---Guitar 3 out  --------------------|g
d||----------------------------------|-------------------------------------|d
a||----------------------------------|-------------------------------------|a
e||----------------------------------|-------------------------------------|e


     1/2___________p______________
G1    //                          \  ~~~~~~~~~~~~~~~~~~~~~~~~~~~~~~~~~~~~~
e||-21----------------------------19~|--------------------------8-10-11----|e
b||----------------------------------|-------------------------------------|b
g||----------------------------------|-------------------------------------|g
d||----------------------------------|-------------------------------------|d
a||----------------------------------|-------------------------------------|a
e||----------------------------------|-------------------------------------|e
 ||                                                                     ||
 G2                                                                     ||
 ||  full__________p______________                                      ||
e||---//--------------------------\--|-------------------------------------|e
b||-17----------------------------15~|~~~~~~~~~~~~~~~~~~~~~~~~~~~~~~~~~~---|b
g||----------------------------------|-------------------------------------|g
d||----------------------------------|-------------------------------------|d
a||----------------------------------|-------------------------------------|a
e||----------------------------------|-------------------------------------|e
 ||                                                                     ||
 G3                                                                     ||
 ||                                                                     ||
e||----------------------------------|-------------------------------------|e
b||----------------------------------|-------------------------------------|b
g||------outoutoutoutoutoutoutoutoutoutoutoutoutoutoutoutout---------------|g
d||----------------------------------|-------------------------------------|d
a||----------------------------------|-------------------------------------|a
e||----------------------------------|-------------------------------------|e

   Riff A
e||---12-8---------7-10-7--------7-8-5-------5-7-3-------3-------|e
b||--------10---10--------9----9-------5---5-------3---3---------|b
g||-----------9-------------10-----------5-----------4-----------|g
d||--------------------------------------------------------------|d
a||--------------------------------------------------------------|a
e||--------------------------------------------------------------|e


e||-5-1-----3-1-----5-1-------8-5-------5------7-8-10-11-12-8---------7----|e
b||-----1-1-----1-1-----1-1-------7---7---8-10----------------10---10------|b
g||---------------------------------8----------------------------9---------|g
d||------------------------------------------------------------------------|d
a||------------------------------------------------------------------------|a
e||------------------------------------------------------------------------|e


e||10-7--------7-8-5-------5-13-8----------8--12-8------10-8------12-8-----|e
b||-----9----9-------6---6--------10----10---------8-8-------8-8-------8---|b
g||-------10-----------5-------------10------------------------------------|g
d||------------------------------------------------------------------------|d
a||------------------------------------------------------------------------|a
e||------------------------------------------------------------------------|e


e||--13-10-------15-10-------13-10-----------|e
b||8-------10-10-------10-10-------10-10-----|b
g||------------------------------------------|g
d||------------------------------------------|d
a||------------------------------------------|a
e||------------------------------------------|e


  With Riff A
e||--17-12----------12-16-13----------13-12-8---------8-10-7-------7-8-5---|e
b||--------13----13----------15----15---------10---10--------8---8---------|b
gG2-----------14----------------16---------------9-------------7-----------|g
d||------------------------------------------------------------------------|d
a||------------------------------------------------------------------------|a
e||------------------------------------------------------------------------|e

                                                        1/2
                                                         /
e||-----7-5-----8-5-----11-8----------8----------12-16-16-12----------12---|e
b||-6-6-----6-6-----6-6------10----10---12-13-15-------------13----13------|b
gG2-----------------------------11------------------------------14---------|g
d||------------------------------------------------------------------------|d
a||------------------------------------------------------------------------|a
e||------------------------------------------------------------------------|e

e||-16-13----------13-13-8----------8-17-13----------13-15-12-------13-----|e
b||-------15----15---------10----10---------13----13----------13-13--------|b
gG2----------16---------------10---------------14--------------------------|g
d||------------------------------------------------------------------------|d
a||------------------------------------------------------------------------|a
e||------------------------------------------------------------------------|e

                                                          guitars1&2
                                                             1/2 1/2
                                                            * /  /~~~~~~
e||12-------15-12-------17-13-------15-13-------19-16-------|19/16~~~~~~---|e
b||---13-13-------13-13-------15-15-------15-15-------17-17-|--------------|b
gG2---------------------------------------------------------|--------------|g
d||---------------------------------------------------------|--------------|d
a||---------------------------------------------------------|--------------|a
e||---------------------------------------------------------|--------------|e
                                                            * gtr2 on left
             full full
   ~~~~~~~~~~ /  /~~~~~~~~~~~~~~~~~~~~~~~~~~~
e||~~~~~~~~~~20/17~~~~~~~~~~~~~~~~~~~~~~~~~~~20/17\------------------------|e
b||--------------------------------------------\---\-----------------------|b
g||------------------------------------------------------------------------|g
d||------------------------------------------------------------------------|d
a||------------------------------------------------------------------------|a
e||------------------------------------------------------------------------|e

 p.m.& sweep picking--------------------------------------------------------|
e||-------------------------------------------------------------------------|e
b||-------------------------------------------------------------------------|b
g||----------10--------------7--------------9--------7--------7-------5-----|g
d||-------10----10---------9---9---------10--------9---9----9-------7-------|d
a||----10----------10---10-------10---10--------10-------10-------7---------|a
e||--8----------------8-------------8---------8-----------------5-----------|e

  -------------------------------------------------------------------------
                                                                  1st end.
e||----------------------------------------------------------------|-------|e
b||----------------------------------------------------------------|-------|b
g||----------4-----------7-----------0------------2-------2-------4|-------|g
d||7-------5---5-------7---7-------2---2--------3-------4-------5--|-------|d
a||--7---7-------7---7-------7---2-------2----3-------5-------5----|--7----|a
e||----5-----------5-----------0------------1-------2-------3------|4------|e

   --------------------------------------------------]
                         2nd end.
e||---------------------||----------------------------||--3~~~~~~~~~-------|e
b||---------------------||----------------------------||--1~~~~~~~~~-------|b
g||--4-------6--------7-||--------4-------6---------7-||--0----------------|g
d||6-------7--------9---||------6------7----------9---||-------------------|d
a||------7-------10-----||---7--------7--------10-----||--3~~~~~~~~~-------|a
e||----5-------7--------||-4--------5-------7---------||-------------------|e


    full           full                      ...............   full
e||--/--6-6-6-6-6---/-----------------------/---------------\--------------|e
b||-9--------------8--(8)--6~~~~~~~~~~~~---8-------------------/~~~~~~~~---|b
g||--------------------------------------5--------------------7------------|g
d||------------------------------------------------------------------------|d
a||------------------------------------------------------------------------|a
e||------------------------------------------------------------------------|e

         full                full
e||-------/--11-11-11-11-13---/---------------------------10---------------|e
b||~~~--14------------------13---11~~~~~~~~~~~-----13~~~~----13-10---------|b
g||--------------------------------------------10------------------12-10---|g
d||------------------------------------------------------------------------|d
a||------------------------------------------------------------------------|a
e||------------------------------------------------------------------------|e


            full           full        full    1/2..    p
e||-------------------------/-------6--/-----6--/---\---^------------------|e
b||------------------------9----------9--------8-----(8)-6~~~~~~~~~~~~~~---|b
g||----------/-------------------------------------------------------------|g
d||-12-10---/--------------------------------------------------------------|d
a||-------12-------(12)\---------------------------------------------------|a
e||------------------------------------------------------------------------|e


      full... full..                  1/2
e||----/-----\/-----\-------------------------11----16----15--13-(13)-11---|e
b||---8-------------(8)~~~~~~~~~~~----/-11-11----11----11------------------|b
g||-5-------------------------------13-------------------------------------|g
d||------------------------------------------------------------------------|d
a||------------------------------------------------------------------------|a
e||------------------------------------------------------------------------|e


      full                            full
e||----/--------------------------------------12-13-15-13~~~~~~~~~~~~~~~---|e
b||--13---11~~~~~~---^---11-13~~~~~~~------13------------------------------|b
g||----------------10-12---------------/12---------------------------------|g
d||----------------------------------15------------------------------------|d
a||------------------------------------------------------------------------|a
e||------------------------------------------------------------------------|e


with riff B
 Riff C
e||---------------------------------------------------------------------||e
b||-16~~~~~~~~~~~~~~~15~~~~~~~~~~~~~~~~~13~~~~~~~~~~~~~(13)~~~~~~~~~~~~~||b
g||------------------------------------------------------------------------|g
d||------------------------------------------------------------------------|d
a||------------------------------------------------------------------------|a
e||------------------------------------------------------------------------|e
    1/2
     /
e||15~~~~~~~~~~~~~~~~15~~~~~~~~~~~~~~~~~13~~~~~~~~~~~~~~-------------------|e
b||-----------------------------------------------------15~~~~~~~~~~~~~~---|b
g||------------------------------------------------------------------------|g
d||------------------------------------------------------------------------|d
a||------------------------------------------------------------------------|a
e||------------------------------------------------------------------------|e


      H
e||---^-----------------------------------------------------------------||e
b||-15-16~~~~~~~~~~~~~~15~~~~~~~~~~~~~~~~13~~~~~~~~~~~~~~~15/17~~~~~~~~~||b
g||------------------------------------------------------------------------|g
d||------------------------------------------------------------------------|d
a||------------------------------------------------------------------------|a
e||------------------------------------------------------------------------|e

1/2
     /                                                        (end riffC)
e||15~~~~~~~~~~~~~~~~15~~~~~~~~~~~~~~~~~13~~~~~~~~~~~~~~-------------------|e
b||-----------------------------------------------------15~~~~~~~~~~~~~~---|b
g||------------------------------------------------------------------------|g
d||------------------------------------------------------------------------|d
a||------------------------------------------------------------------------|a
e||------------------------------------------------------------------------|e
 With riff C

e||-15~~~~~~~~~~~~~~~13~~~~~~~~~~~~~~~~~13~~~~~~~~~~~~~~~~~15~~~~~~~~~~~||e
b||------------------------------------------------------------------------|b
g||------------------------------------------------------------------------|g
d||------------------------------------------------------------------------|d
a||------------------------------------------------------------------------|a
e||------------------------------------------------------------------------|e
       full
        /
e||~~~18~~~~~~~~~~~~~~~~~18~~~~~~~~~~~~~~~~~17~~~~~~~~~~~~~~~15~~~~~~~~~||e
b||------------------------------------------------------------------------|b
g||------------------------------------------------------------------------|g
d||------------------------------------------------------------------------|d
a||------------------------------------------------------------------------|a
e||------------------------------------------------------------------------|e


e||~~~||-18~~~~~~~~~~~~~~~~~~18~~~~~~~~~~~~~~~~~~~17~~~~~~~~~~~~~~~~~~~~||e
b||---||-------------------------------------------------------------------|b
g||---||*------------------------------------------------------------------|g
d||---||*------------------------------------------------------------------|d
a||---||-------------------------------------------------------------------|a
e||---||-------------------------------------------------------------------|e
                          full
                           /                                            ~
e||-15~~~~~~~~~~~~~~~~~~~18~~~~~~~~~~~~~~~~~~~~~18~~~~~~~~~~~~~~~~~~~~17||e
b||------------------------------------------------------------------------|b
g||------------------------------------------------------------------------|g
d||------------------------------------------------------------------------|d
a||------------------------------------------------------------------------|a
e||------------------------------------------------------------------------|e

                        full    repeat and fade
                         /
e||~~~~~~~~~~~~~~~~~~~~17~~~~~~~~~~~~~~~~~~~~||e
b||---------------------------------------------|b
g||-----------------------------------------*---|g
d||-----------------------------------------*---|d
a||---------------------------------------------|a
e||---------------------------------------------|e


   fill 1                            fill 2
e||---------------------------------|-12~~~~~~~~~~~~~~~~~~~~~~~~~~~~~~~~---|e
b||-13~~~~~~~~~~~~~~~~~~~~~~~~~~~~~~|--------------------------------------|b
g||---------------------------------|--------------------------------------|g
d||---------------------------------|--------------------------------------|d
a||---------------------------------|--------------------------------------|a
e||---------------------------------|--------------------------------------|e


  fill 3
e||-15~~~~~~~~~~~~~~~~~~~~~~~~~~~~~~~~~~~~~~~~~~~~~~~~~~~~~~~~~~~~~~~~~~||e
b||------------------------------------------------------------------------|b
g||------------------------------------------------------------------------|g
d||------------------------------------------------------------------------|d
a||------------------------------------------------------------------------|a
e||------------------------------------------------------------------------|e
> >
> >
> >
2 comments total.
0 reply
IceNineKiller wrote on November 20 2007, 09:30 pm

great job man, tough shit to tab out.

+1 reply
ThatCostsMoney wrote on October 4 2008, 05:09 pm

steve doesnt sweep pick
all his stuff are alternate picked
which makes it so damn ****in haarrrd

I want to post or [tab]
guest
You may want to rate the tab now too:
select rating
Please do not post tabs as comments. Select "correction" instead!