Oops, an error
Loading. Please wait.

Weekend Overdrive Tab

491 views 1 this week
no commentswrite comment
1 2 3 4 5
please rate
add to favorites launch autoscroll
font size
0
reset
Autoscroll
+/-
esc
set tempo
stop
Contributor
WARNING: You are trying to view
                                    content from Ultimate-Guitar.com
                                    in an unauthorized application,
                                    which is prohibited.

                                    Please use an official Ultimate
                                    Guitar Tabs application for iPhone,
                                    iPad or Android to access legitimate
                                    chords, guitar, bass, and drum tabs
                                    from Ultimate-Guitar.com database.

                                    Type "ultimate guitar tabs" in Apple
                                    App Store's or Android Market's
                                    search to find the application.
E|----------10-----------------------------------------|-----------------------|
B|-------10----13p10-----12-------10-------------------|-----------------------|
G|-12b14-------------12-----12b14----13p12p10----12----|-10b-------------------|
D|--------------------------------------------12----12-|-----12-10----12p10----|
A|-----------------------------------------------------|-----------12-------12-|
E|-----------------------------------------------------|-----------------------|

E|--------------------|-----------|------------||--------------|--------------|
B|--------------------|-----------|------------||*-------------|--------------|
G|--------------------|-----------|------------||--9-9-----7-5~|--------------|
D|-10b----------------|-----------|------------||--9-9-----5-5~|--------------|
A|-----11-10----10----|-8~--------|------------||*-7-7-------3~|--------------|
E|-----------10----10-|-----------|------------||--------------|--------------|

E|------------|-------------------||-----------------------|--------------|-----|
B|-3-3--------|------------------*||-----------------------|--------------|-----|
G|-4-4----7-7~|-------------------||---------2b4-----------|-0-----0------|-4b5-|
D|-5-5----5-7~|-------------------||-----------------------|---2-0----/5~-|-----|
A|----------5~|----------0-----7-*||-----------------------|--------------|-----|
E|-3-3--------|------------8-9----||-----------------------|--------------|-----|

E|--------|------------|-------------------------12-------------------------|----|
B|--------|------------|----------------------12----15----14-------12-------|----|
G|--r---2~|------------|----------------14b16----------14----14b16----15-14-|-13-|
D|--------|------------|----------------------------------------------------|----|
A|--------|------------|----------------------------------------------------|----|
E|--------|------------|----------------------------------------------------|----|

E|-------------------------------------|--------15~------15b17--14~----|-------|
B|----------------------12-13-14-15----|-------------------------------|-------|
G|-12----------12-14b16-------------12-|-14b16-------------------------|-------|
D|----14-12-14-------------------------|-------------------------------|-------|
A|-------------------------------------|-------------------------------|-------|
E|-------------------------------------|-------------------------------|-------|

E|--------13-12b13~-------|----12-10----10-12---------|----------10-|-15-10----|
B|------------------------|----------13-------13b15~--|-------------|-------12-|
G|-----10-----------------|-10------------------------|-------------|----------|
D|------------------------|---------------------------|-------------|----------|
A|------------------------|---------------------------|-------------|----------|
E|------------------------|---------------------------|-------------|----------|

E|-14-10----12-10----14----13-|---------12b13~------------|----12-10----10-12--------|
B|-------10-------10----10----|---------------------------|----------13-------13b15~-|
G|----------------------------|---------------------------|-10-----------------------|
D|----------------------------|---------------------------|--------------------------|
A|----------------------------|---------------------------|--------------------------|
E|----------------------------|---------------------------|--------------------------|

E|---|-----------10~|-15-10----15-10----15-14-17-14----17b18-|--------------17-|
B|---|--------------|-------12-------10-------------15-------|-----------------|
G|---|--------------|----------------------------------------|-----------------|
D|---|--------------|----------------------------------------|-----------------|
A|---|--------------|----------------------------------------|-----------------|
E|---|--------------|----------------------------------------|-----------------|

E|--r|-13-------17-13-15-------15----17b19~|----------------19~|-r15-------19-15-|
B|---|----13-------------13-17----13-------|-------------------|-----15----------|
G|---|-------14----------------------------|-------------------|--------16-------|
D|---|-------------------------------------|-------------------|-----------------|
A|---|-------------------------------------|-------------------|-----------------|
E|---|-------------------------------------|-------------------|-----------------|

E|-17-------15----20b22-|--------------17--r|-13-------17-13-15-------15----17b19~-|
B|----15-19----17-------|-------------------|----13-------------13-17----13--------|
G|----------------------|-------------------|-------14-----------------------------|
D|----------------------|-------------------|--------------------------------------|
A|----------------------|-------------------|--------------------------------------|
E|----------------------|-------------------|--------------------------------------|

E-|------------18b20-|-18b20-18b20-18b20-17~--------|-----------||--------------|
B-|------------------|------------------------------|-----------||*-------------|
G-|------------------|------------------------------|-----------||--------------|
D-|------------------|------------------------------|-----------||------2-------|
A-|------------------|------------------------------|-----------||*-------5-2-4-|
E-|------------------|----------------------------0-|-----------||--3-4---------|

E|-------------|-------------------------|-------------------------|-----------|
B|-------------|-------------------------|-------------------------|-----------|
G|-------------|-------------------------|-------------------------|-----------|
D|-------------|-------------------------|-----2-------------------|-----------|
A|-2---2---2---|---2-4-2-5-2-4-2---2-----|-------5-2-4-2---2---2---|-----------|
E|---6---5---3-|-4---------------6---5-0-|-3-4-----------6---5---3-|---------4-|

                  2nd time

E|----------------||----------------12----|--------------|------------------|--|
B|---------------*||----------------11b12-|--------------|------------------|--|
G|----------------||----------------------|--------------|------------------|--|
D|----------------||----------------------|--------0-2-0-|-3--2--0-------0--|--|
A|-2-4-----------*||---2-4----------------|----1h2-------|---------3-1h2----|--|
E|-----3-2-0---0--||-4-----3-2-0----------|--3-----------|------------------|--|

E|-------------------------|-------------------|-------------|-----------------|
B|-------------------------|-------------------|-------------|-----------------|
G|-------------------------|---------0---------|-------------|-----------------|
D|-------------------0-2-0-|-3-----------------|-------0-2-0-|-3---2---0-------|
A|---------------1h2-------|---1b2-------------|---1h2-------|-----------3-1h2-|
E|--------3-3--3-----------|-----------1b---3~-|-3-----------|---3---3---------|

E|---|-|---------------------------|-----------------|----------10----------------|
B|---|-|---------------------------|-----------------|-------10----13----12-------|
G|---|-|---------------------------|------2b--0------|-12b14----------12----12b14-|
D|-2-|-|---------------------0-2-0-|-3---------------|----------------------------|
A|---|-|-----------------1h2-------|---1---------3~--|----------------------------|
E|---|-|----------3-3--3-----------|-----------------|----------------------------|

E|----------------------|-------------------------------------------------------|
B|-10-------------------|-------------------------------------------------------|
G|----13p12p10----12----|--------------10b--------------------------------------|
D|-------------12----12-|------------------12-10----12p10----10b----------------|
A|----------------------|------------------------12-------12-----11-10----10----|
E|----------------------|----------------------------------------------10----10-|

                                            Chords For Bass Solo

E-|-----------------------------|---------------------------------|--3-3------|
B-|-----------------------------|---------------------------------|--3-3------|
G-|-----------------------------|--------------------9-9-----5-5--|--0-0------|
D-|-----------------------------|--------------------9-9-----5-5--|--0-0------|
A-|-8~--------------------------|--------------------7-7-----3-3--|--2-2------|
E-|-----------------------------|---------------------------------|--3-3------|

E|--------|-----------------|-----------------5-6---8--------|------------------|
B|--------|-----6~----------|---------------8---------8b10-6~|------------------|
G|-7-7----|-5---------------|--------------------------------|------------------|
D|-7-7----|-----------------|--------------------------------|------------------|
A|-5-5----|-----------------|--------------------------------|------------------|
E|--------|-----------------|--------------------------------|------------------|

E-|---------------------|------------------|-------------------------------------|
B-|-------------------6~|------------------|-------13p6-13p8-13p10-13p10b14--13--|p
G-|-8-7-5---------7-5---|------------------|-------------------------------------|
D-|-------7-5---5-------|------------------|-------------------------------------|
A-|-----------8---------|------------------|-------------------------------------|
E-|---------------------|------------------|-------------------------------------|

E|---------|---------------------6-8-10-|-10b11---10-8-6----------------|------|
B|-10-13p8-|-13p6~--------6-8-10--------|----------------10-8-6--8/10-8~|------|
G|---------|----------------------------|-------------------------------|------|
D|---------|----------------------------|-------------------------------|------|
A|---------|----------------------------|-------------------------------|------|
E|---------|----------------------------|-------------------------------|------|

E|----------------------|------------------|---------------------|-------------|
B|---------5-5b6--r-----|------------------|---------------------|-------------|
G|-------7----------7-5~|------------------|-------------------5~|-------------|
D|----------------------|------------------|-8-7-5-------5-7-5---|-------------|
A|----------------------|------------------|-------7-5-----------|-------------|
E|----------------------|------------------|-----------8---------|-------------|

E|-------|---------------------------------------------------|------------------|
B|-------|-----------20p13-20p15-20p17-20p17b21--20p17-20p15-|-20p13~-----13-15-|
G|-------|---------------------------------------------------|------------------|
D|-------|---------------------------------------------------|------------------|
A|-------|---------------------------------------------------|------------------|
E|-------|---------------------------------------------------|------------------|

E|----13-15-17-|-17b18--17-15-13---------15-|-------------|-----15-17p15-19p15-|
B|-17----------|------------------15/17-----|---18b20~----|--------------------|
G|-------------|----------------------------|-------------|--------------------|
D|-------------|----------------------------|-------------|--------------------|
A|-------------|----------------------------|-------------|--------------------|
E|-------------|----------------------------|-------------|--------------------|

E|-17p15-20p15-19p15-17p15-|-------------------15-|----------------------------|
B|-------------------------|-18b20~---------------|-18-17-15-------15-17-15----|
G|-------------------------|----------------------|----------16-17-------------|
D|-------------------------|----------------------|-------------------------17-|
A|-------------------------|----------------------|----------------------------|
E|-------------------------|----------------------|----------------------------|

E|-------15-|-------------------|-----15-17p15-19p15-17p15-20p15-19p15-17p15--|
B|----------|-18b20~------------|---------------------------------------------|
G|-16-17----|-------------------|---------------------------------------------|
D|----------|-------------------|---------------------------------------------|
A|----------|-------------------|---------------------------------------------|
E|----------|-------------------|---------------------------------------------|

E|----------------------17-19-|-20-19-17----------------17-19-20-20b22----20-19-|
B|-18b20~------17-18-20-------|----------20-18-17-18-20-------------------------|
G|----------------------------|-------------------------------------------------|
D|----------------------------|-------------------------------------------------|
A|----------------------------|-------------------------------------------------|
E|----------------------------|-------------------------------------------------|

E|-17-|--------19p17-15~|---------------17b19-|--------------------17b19--17-|--|
B|----|-----------------|------------15-------|------------------------------|--|
G|----|-----------------|---------------------|------------------------------|--|
D|----|-----------------|---------------------|------------------------------|--|
A|----|-----------------|---------------------|------------------------------|--|
E|----|-----------------|---------------------|------------------------------|--|

E|-------------------|-------/10-10-10-10-10-10--/10-10-10-10-10-10-|--/10-10-10-|
B|-------------------|-------/10-10-10-10-10-10--/10-10-10-10-10-10-|--/-8--8--8-|
G|-------------------|----------------------------------------------|------------|
D|-------------------|-------/12-12-12-12-12-12--/12-12-12-12-12-12-|--/-9--9--9-|
A|-------------------|----------------------------------------------|------------|
E|-------------------|----------------------------------------------|------------|

E|-10-10-10--/10-10-10-10-10-10-|--------------------/10-10-10-10-10-10---/10-10-|
B|--8--8--8--/-8--8--8--8--8--8-|--------------------/12-12-12-12-12-12---/12-12-|
G|------------------------------|------------------------------------------------|
D|--9--9--9--/-9--9--9--9--9--9-|--------------------/10-10-10-10-10-10---/10-10-|
A|------------------------------|------------------------------------------------|
E|------------------------------|------------------------------------------------|

E|-10-10-10-10--|--/10-10-10-10--------------|-----------------------------------|
B|-12-12-12-12--|--/10-10-10-10---------------|------------------11b12----11b12--|
G|--------------|----------------------------|-----------------------------------|
D|-10-10-10-10--|--/12-12-12-12--------------|-----------------------------------|
A|--------------|-----------------5---5-------|----------------------------------|
E|--------------|-------------------5---3-2-0-|----------------------------------|

E|-----|-------------------|-----------------------|---------------------|-----|
B|-----|-------------------|-----------------------|---------------------|-----|
G|--12-|------12---0--3p0--|-5p0--3bp0-------------|---------------------|-----|
D|-----|-------------------|------------3p0--------|---------------------|-----|
A|-----|-------------------|-----------------1b----|---------------------|-----|
E|-----|-------------------|---------------------3~|---------------------|-----|

E|------------15----------------|------------------|----------------------------|
B|--11b12--13-------------11b13-|------------------|----------------------------|
G|---------------12~------------|------------12-13-|-14-15-15-15-15-15-14-12----|
D|------------------------------|---12-13-14-------|-------------------------15-|
A|------------------------------|------------------|----------------------------|
E|------------------------------|------------------|----------------------------|

E|----------------------------------|-----------------------15-----------15----|
B|----------------------------------|-----------------17b18-----18b20~------15-|
G|----------------------------------|------------------------------------------|
D|-14-13-12----------------------12-|------------------------------------------|
A|----------15-14-13-12-13-14-15----|------------------------------------------|
E|----------------------------------|-15~--------------------------------------|

E|----------15----------|-15----------18b22-----18-|-r15-------------------------|
B|-15-18b20----18b20-15-|----18b20-15--------------|-----18-15-------------------|
G|----------------------|--------------------------|-----------18-17-16-15-16-17-|
D|----------------------|--------------------------|-----------------------------|
A|----------------------|--------------------------|-----------------------------|
E|----------------------|--------------------------|-----------------------------|

E|-------|------------------|-------------10------|----------------------------|
B|----15-|----------13b15---|----13p11-13----11b--|----------------------------|
G|-18----|------------------|---------------------|-12p10--12------------------|
D|-------|-15~--------------|---------------------|---------------12-13-14-15--|
A|-------|------------------|---------------------|----------------------------|
E|-------|------------------|---------------------|----------------------------|

E|--------------------------------------------|-----------------------------10-|
B|--------------------------------------------|--------------------10-11-13----|
G|-12-----------------------------------------|-10~--------9-10-12-------------|
D|----15-14-13-12-----------------------------|----9h10-12---------------------|
A|----------------15-14-13-11-----------------|--------------------------------|
E|----------------------------15-15-14-13b15--|-13~----------------------------|

E|-12-13-|----------10--------------------------------------|--------------------|
B|-------|-------10----13----12-------10--------------------|--------------------|
G|-------|-12b14----------12----12b14----13p12p10----12-----|-10b----------------|
D|-------|----------------------------------------12----12--|-----12-10----12p10-|
A|-------|--------------------------------------------------|-----------12-------|
E|-------|--------------------------------------------------|--------------------|

E|-----------------------|-----------------------------|-----------------------|
B|-----------------------|-----------------------------|-----------------------|
G|-----------------------|-----------------------------|-----------------------|
D|----10b----------------|---6p5p3---5---3-----0-------|-----------------------|
A|-12-----11-10----10----|-8-------5---5---5-4---3---3-|---2-----0-------------|
E|--------------10----10-|-------------------------5---|-----3-4---3-1~--------|

E-|-
B-|-
G-|-
D-|-
A-|-
E-|-

Madoc
--9---------0-------------------------9h10p9---------0------|
----12H-------0-----0------------------------12H-------0----|
--------12H-----0-1---0-----0--------------------12H--------|
------------------------0-2-------0-------------------------|
------------------------------0-4---------------------------|
-0----------------------------------0-----------------------|


-----------------2-----10p9---------0-----------------------|
-----0-----------0----------12H-------0-----0---------------|
-0-1---0h1p0-----1--------------12H-----0-1---0-----0-------|
-------------0h2-2------------------------------0-2-------0-|
-----------------0------------------------------------0-4---|
---------------------0--------------------------------------|


---10p9---------0-------------------------|-7--------7------|
--------12H-------0-----0-----------------|----0-------0----|
------------12H-----0-1---0h1p0-----------|------0----------|
--------------------------------2---0h12H-|--------0--------|
----------------------------------0-------|-----------------|
-0----------------------------------------|-----------------|


-5-------5----4h5-------4----2-------2h4p2--0-------0-------|
---7-------7------5-------5----0-------0------2-------0-----|
-----7--------------0------------1--------------0-----------|
-------0--------------0------------2--------------0---------|
-0---------------------------0--------------2---------------|
--------------0---------------------------------------------|


---------4--------------------------------7-------7h9p7-----|
---0-------0----0------0-------0-----0------0-------0-------|
-----5------------0------0-------0-----0------0-------------|
-------5------------0--------------0------------0-----------|
---------------------------0h4------------------------------|
-5------------0---------------------------0-----------------|

-5-------5----4h5-------7----2-------2h4p2--0-------0-------|
---7-------7------5-------5----0-------0------2-------0-----|
-----7--------------0------------1--------------0-----------|
-------0--------------0------------2--------------0---------|
-0---------------------------0--------------2---------------|
--------------0---------------------------------------------|


-2--------2---------------------------7--------12p7----5----|
----2-------2--7------------------7-----0-----------0-------|
------2-----------5-----5-------7---------0-----------------|
--------2-----------5-----5---7-------------0---------------|
-------------------------------------------------------0----|
-2-------------5------6-----7---------0---------------------|


-------9p5----4h5-------7----2--------2h4p2--0-------0------|
-7---------0------5-------5----0--------0------2-------0----|
---7----------------0------------1---------------0----------|
-----0----------------0------------2---------------0--------|
-----------------------------0---------------2--------------|
--------------0---------------------------------------------|


---------4----------------------------|-----0-2-2h4p2p0-4-5-|
---0-------0---0------0-------0-----0-|-0-2-----------------|
-----5-----------0------0-------0-----|---------0-----------|
-------5-----------0--------------0---|---------------------|
--------------------------0h4---------|---------------------|
-5-----------0------------------------|-5-------0-----------|


-7-7-------0-----------------------4----2p0-----------------|
-----------0----2-----0--------------0------0-----4---------|
-----7---7--------0-----0----5----------------1-----1-------|
--------------------0----------5----------------2-----------|
-------4------2-------------------------0-------------------|
-4-------------------------5-----5--------------------------|


-0-------------|----------------------------------------------|
---0-----0-----|----------------------------------------------|
-1---1-----1-0-|--------7-------7----5h7-------8-----8/10-----|
-------0-------|-4-5-7----7-------7------5-------5------------|
---------------|------------4--------------5------------------|
-0-------------|--------4-----4------5-------5-----0----------|


------------------------------------------------------------|
-----------------------------------------------5------------|
-12---------12-------12------12---------10-------6----------|
-----9---------9--------9-------12---------10------5--------|
-------12--------12-------12--------9----------------5------|
----------0---------0---------9-------10-------5------------|


------------------------------------------------------------|
---------0--------------------------------------------------|
-5h6p5-----0-----0--------------7-------7---5h7-------8-----|
-------5-----0-----0-----4-5-7----7-------7-----5-------5---|
---------------0------0-------------4-------------5---------|
---------0----------------------4-----4-----5-------5-----5-|


-------------------------------------------9-------7--------|
---------------------------------------------5-------5------|
-8/15-15-------------------12--------12--------5------------|
---------0------0-----0-------12--------12-------5----------|
-----------0------0-----0--------9--------------------------|
-------0-----0------0--------------9-------5----------------|


-------------------11-------9---|-7-------7------|
-10----------10-------7-------7-|---0-------0----|
----10----------10------7-------|-----0----------|
-------10-10--------------7-----|-------0--------|
--------------------------------|----------------|
-10----------------7------------|-0--------------|


-5-------5----4h5-------4----2-------2h4p2--0-------0-------|
---7-------7------5-------5----0-------0------2-------0-----|
-----7--------------0------------1--------------0-----------|
-------0--------------0------------2--------------0---------|
-0---------------------------0--------------2---------------|
--------------0---------------------------------------------|


---------4--------------------------------7-------7h9-------|
---0-------0----0------0-------0-----0------9---------9-----|
-----5------------0------0-------0-----0------0-------------|
-------5------------0--------------0------------0-----------|
---------------------------0h4------------------------------|
-5------------0---------------------------0-----------------|

-5-------5----4h5-------7----2-------2h4p2--0-------0-------|
---7-------7------5-------5----0-------0------2-------0-----|
-----7--------------0------------1--------------0-----------|
-------0--------------0------------2--------------0---------|
-0---------------------------0--------------2---------------|
--------------0---------------------------------------------|


-2-------2----5-7-9--10-12-14--12p7-------0-----------------|
---2-------2--5------10-------------9-------0---------------|
-----2--------5------10---------------0---------------------|
-------2--------------------------------0-------------------|
------------------------------------------------------------|
-2------------5------10--------0----------------------------|


-5-------5----4h5-------7----2-------2h4p2--0-------0-------|
---7-------7------5-------5----0-------0------2-------0-----|
-----7--------------0------------1--------------0-----------|
-------0--------------0------------2--------------0---------|
-0---------------------------0--------------2---------------|
--------------0---------------------------------------------|


---------4------------------------------|
---0-------0----0------0-------0------0-|
-----5------------0------0-------0------|
-------5------------0--------------0----|
---------------------------0h4----------|
-5------------0-------------------------|


-----0-2-2h4p2p0-4-5-|
-0-2-----------------|
---------0-----------|
---------------------|
---------------------|
-5-------0-----------|


-7-7-------0-----------------------4----2p0-----------------|
-----------0----2-----0--------------0------0-----4---------|
-----7---7--------0-----0----5----------------1-----1-------|
--------------------0----------5----------------2-----------|
-------4------2-------------------------0-------------------|
-4-------------------------5-----5--------------------------|


-0-------------|
---0-----0-----|
-1---1-----1-0-|
-------0-------|
---------------|
-0-------------|

--9---------0-------------------------9h10p9---------0------|
----12H-------0-----0------------------------12H-------0----|
--------12H-----0-1---0-----0--------------------12H--------|
------------------------0-2-------0-------------------------|
------------------------------0-4---------------------------|
-0----------------------------------0-----------------------|


-----------------2-----10p9---------0-----------------------|
-----0-----------0----------12H-------0-----0---------------|
-0-1---0h1p0-----1--------------12H-----0-1---0-----0-------|
-------------0h2-2------------------------------0-2-------0-|
-----------------0------------------------------------0-4---|
---------------------0--------------------------------------|


--9h10p9---------0----------------------------|
---------12H-------0-----0-----------------5H-|
-------------12H-----0-1---0h1p0-----------5H-|
---------------------------------2---0h12H-5H-|
-----------------------------------0-------5H-|
-0-----------------------------------------5H-|
comments
We did not receive enough feedback on this tab! Please rate:
1 2 3 4 5
I want to post or [tab]
guest
You may want to rate the tab now too:
select rating
Please do not post tabs as comments. Select "correction" instead!