Oops, an error
Loading. Please wait.

Halo 2 Theme Tab

14,437 views 60 this week
no commentswrite comment
1 2 3 4 5
excellent!
x 3
add to favorites launch autoscroll
font size
0
reset
Autoscroll
+/-
esc
set tempo
stop
Contributor
Difficulty
advanced
WARNING: You are trying to view
                                    content from Ultimate-Guitar.com
                                    in an unauthorized application,
                                    which is prohibited.

                                    Please use an official Ultimate
                                    Guitar Tabs application for iPhone,
                                    iPad or Android to access legitimate
                                    chords, guitar, bass, and drum tabs
                                    from Ultimate-Guitar.com database.

                                    Type "ultimate guitar tabs" in Apple
                                    App Store's or Android Market's
                                    search to find the application.
/:slide
h:hammer on
~:vibrato
b:bend
p:pull off


e|--------------------------------------------------------------------------|
B|--------------------------------------------------------------------------|
G|--1/9----9h11-12-14---11h12-9h11-7h9~-------------------------------------|
D|--------------------------------------------------------------------------|
A|--------------------------------------------------------------------------|
E|--------------------------------------------------------------------------|

e|------------------------------------------------------------------------|
B|------------------------------------------------------------------------|
G|------------------------------------------------------------------------|
D|---------------9-------11------12-------14---14-12-11-------------------|x2
A|---------------7-------9-------10-------12---12-10-9--------------------|
E|--10/3---0-0-0---0-0-0---0-0-0----0-0-0---------------------------------|

e|--------------------------------------------------------------------------|
B|--15b12-17b14-18b15-20b17---22-20-19-17-15-17--17p15/12--------------15-17|
G|--------------------------------------------------------b14-14p13---------|
D|------------------------------------------------------------------14------|
A|--------------------------------------------------------------------------|
E|--------------------------------------------------------------------------|

e|------------------------------------------9-------------------------------|
B|--12-12-14-15--12-15-14-12-10---10--10-12---12----------------------------|
G|------------------------------9---9------------9--------------------------|
D|--------------------------------------------------------------------------|
A|--------------------------------------------------------------------------|
E|--------------------------------------------------------------------------|

e|-----------------12-----------------12------------------------------------|
B|--12-12-14-b15------15-14-15-14-12-----15-14-15-14-12---------------------|
G|--------------------------------------------------------------------------|
D|--------------------------------------------------------------------------|
A|--------------------------------------------------------------------------|
E|--------------------------------------------------------------------------|

e|--14-------17-17-17-17--14------17-12-14-15/17-17-------------------------|
B|----15--------------------15----------------------------------------------|
G|------16--------------------16--------------------------------------------|
D|--------------------------------------------------------------------------|
A|--------------------------------------------------------------------------|
E|--------------------------------------------------------------------------|

e|------------------------------------------------21-19-17-15-15-14-15-17-15|
B|--15-17-19-17-19-20-19-17-19-17-15-14-15-17-24----------------------------|
G|--------------------------------------------------------------------------|
D|--------------------------------------------------------------------------|
A|--------------------------------------------------------------------------|
E|--------------------------------------------------------------------------|

e|-----15---15----15----15----15----15----15----15-17-18-20-17--------------|
B|--18---------18----------18----------18-----------------------------------|
G|-------17----------17----------17----------17-----------------------------|
D|--------------------------------------------------------------------------|
A|--------------------------------------------------------------------------|
E|--------------------------------------------------------------------------|

e|-----17---17----17----17----17----17----17----17-17-15-14-15-14-----------|
B|--20---------20----------20----------20-------------------------17--------|
G|-------19----------19----------19----------19-----------------------------|
D|--------------------------------------------------------------------------|
A|--------------------------------------------------------------------------|
E|--------------------------------------------------------------------------|

e|------------------------------------------------------------------------|
B|------------------------------------------------------------------------|
G|----------------------9-9-----------------------------------------------|
D|----9-9-9---12-12-12--7-7-----12-12-11-9--------------------------------|x2
A|----7-7-7---10-10-10--x-x-----10-10-9--7--------------------------------|
E|--0---------9--9--9---8-8---0-------------------------------------------|

e|--------------------------------------------------------------------------|
B|--------------------------------------------------------------------------|
G|--------------------------------------------------------------------------|
D|--------9-------11------12-------14---14-12-11----------------------------|
A|--------7-------9-------10-------12---12-10-9-----------------------------|
E|--0-0-0---0-0-0----0-0-0---0-0-0------------------------------------------|

e|-----15---15----15----15----15----15----15----15-17-18-20-17--------------|
B|--18---------18----------18----------18-----------------------------------|
G|-------17----------17----------17----------17-----------------------------|
D|--------------------------------------------------------------------------|
A|--------------------------------------------------------------------------|
E|--------------------------------------------------------------------------|

e|-----17---17----17----17----17----17----17----17-17-15-14-15-14-----------|
B|--20---------20----------20----------20-------------------------17--------|
G|-------19----------19----------19----------19-----------------------------|
D|--------------------------------------------------------------------------|
A|--------------------------------------------------------------------------|
E|--------------------------------------------------------------------------|

e|--------------------------------------------------------------------------|
B|--------------------------------------------------------------------------|
G|--b14-b14-b14-b14-14p12---------------------------------------------------|
D|---------------------------14-16-17-19---19-17-16-17-16-14-14-------------|
A|--------------------------------------------------------------------------|
E|--------------------------------------------------------------------------|


e|--------------------------------------------------------------------------|
B|--17--17-17-17-19-19b-19-17-15-15b--17p15----17---------------------------|
G|--------------------------------------------16----------------------------|
D|--------------------------------------------------------------------------|
A|--------------------------------------------------------------------------|
E|--------------------------------------------------------------------------|

e|-----------------------------------------------9--------------------------|
B|--12---12-14-15---12-15-14-12-10----10---10--12---12-10-------------------|
G|---------------------------------9-----9----------------9-----------------|
D---------------------------------------------------------------------------|
A|--------------------------------------------------------------------------|
E|--------------------------------------------------------------------------|


e|--------------------12-----------------12---------------------------------|
B|--12---12-14-b15--------15-14-15-14-12-----15-14-15-14-12-----------------|
G|--------------------------------------------------------------------------|
D---------------------------------------------------------------------------|
A|--------------------------------------------------------------------------|
E|--------------------------------------------------------------------------|


e|--14------17--17-17-17--14------17---12-14-15/17-17-----------------------|
B|----15--------------------15----------------------------------------------|
G|------16--------------------16--------------------------------------------|
D---------------------------------------------------------------------------|
A|--------------------------------------------------------------------------|
E|--------------------------------------------------------------------------|


e|--------------------------------------------------------------------------|
B|--15--17--19--17-19-20-19-17-19-17-15--14--15--17--24---------------------|
G|--------------------------------------------------------------------------|
D|--------------------------------------------------------------------------|
A|--------------------------------------------------------------------------|
E|--------------------------------------------------------------------------|


e|--21-19-17-15--15-14-15-17-15---------------------------------------------|
B|-------------------------------b22-22-------------------------------------|
G|--------------------------------------------------b14-b14-b14-b14-14------|
D|--------------------------------------------7-7h9-------------------------|
A|--------------------------------------5-5h7-------------------------------|
E|--------------------------------------------------------------------------|


e|--------------------------------------------------------------------------|
B|--b15-15p12---b18-18p15---b20-20p17-----b20-20-19-------------------------|
G|--------------------------------------------------------------------------|
D|-----------14----------17----------19-------------------------------------|
A|--------------------------------------------------------------------------|
E|--------------------------------------------------------------------------|


e|--------------------------------------------------------------------------|
B|---15------------------------15-------------------------------------------|
G|--b14--------14p12--12------b14-----14p12---------------------------------|
D|------------------14--14----------------14-12-14--------------------------|
A|--------------------------------------------------------------------------|
E|--------------------------------------------------------------------------|


e|--------------------------------------------------------------------------|
B|-/17--17-19h20-19-17-17h19-15-12------------------------------------------|
G|--------------------------------b14-b14-14p12---12b14--14p13hb14-14p12----|
D|----------------------------------------------14---------------------14---|
A|--------------------------------------------------------------------------|
E|--------------------------------------------------------------------------|


e|--------------------------------------------------------------------------|
B|--15h17-17-17b-----b17-17p15----17p15---15h17-----------------------------|
G|-----------------------------16-------16----------------------------------|
D|--------------------------------------------------------------------------|
A|--------------------------------------------------------------------------|
E|--------------------------------------------------------------------------|

e|--------------------------------------------------------------------------|
B|-----------15---------15--------------------------------------------------|
G|------14h16------14h16--14h16p14h16p14h16---------------------------------|
D|-14h17------14h17-------------------------14h17p14h17p14h17---------------|
A|-------------------------------------------------------------14~----------|
E|--------------------------------------------------------------------------|

e|--------------------------------------------------------------------------|
B|--------------------------------------------------------------------------|
G|--------------------------------------------------------------------------|
D|--------------------------------------------------------------------------|
A|--------------------------------------------------------------------------|
E|--7-10-12-15-17-14---12-15-14-12-14-10~-----------------------------------|

comments
We did not receive enough feedback on this tab! Please rate:
1 2 3 4 5
I want to post or [tab]
guest
You may want to rate the tab now too:
select rating
Please do not post tabs as comments. Select "correction" instead!