Oops, an error
Loading. Please wait.

Harmony Korine Tab

14,194 views 21 this week
2 commentsread comments
1 2 3 4 5
excellent!
x 9
Autoscroll
+/-
esc
set tempo
stop
Contributor
WARNING: You are trying to view
                                    content from Ultimate-Guitar.com
                                    in an unauthorized application,
                                    which is prohibited.

                                    Please use an official Ultimate
                                    Guitar Tabs application for iPhone,
                                    iPad or Android to access legitimate
                                    chords, guitar, bass, and drum tabs
                                    from Ultimate-Guitar.com database.

                                    Type "ultimate guitar tabs" in Apple
                                    App Store's or Android Market's
                                    search to find the application.
-----------------------------------------------------------------------------
                             Steven Wilson - Harmony Korine
-----------------------------------------------------------------------------

Tabbed by: Vegiman
Email: hoagie68plus1@gmail.com

Tuning: Dropped D (D A D G B e)

Guitar 1 = 'Clean'
Guitar 2 = 'Distortion 1'
Guitar 3 = 'Distortion 2'

Tempo=145
4/4
 

---Part 1---

    Gtr I -- let ring


e|---10------10------10-|------10------10------|
B|------10------10------|-10------10------10---|
G|----------------------|----------------------|
D|-0-------0-------0----|----0-------0-------0-|
A|----------------------|----------------------|
D|----------------------|----------------------|



e|----10-------10-------10-|-------10-------10--------|
B|-------10-------10-------|-10-------10-------10-----|
G|-10-------10-------10----|----10-------10-------10--|
D|-------------------------|--------------------------|
A|-------------------------|--------------------------|
D|-------------------------|--------------------------|



e|---10-----10-----10-|-----10-----10-----|
B|------9------9------|-9------9------9---|
G|-9------9------9----|---9------9------9-|
D|--------------------|-------------------|
A|--------------------|-------------------|
D|--------------------|-------------------|



e|---10-----10-----10-|-----10-----10-----|
B|------8------8------|-8------8------8---|
G|-9------9------9----|---9------9------9-|
D|--------------------|-------------------|
A|--------------------|-------------------|
D|--------------------|-------------------|


---Part 2---

    Gtr II


e|-------------------------|-------------------------|
B|-------------------------|-------------------------|
G|-------------------------|-------------------------|
D|-------------------------|-------------------------|
A|-12-12-12-12-12-12-12-12-|-12-12-12-12-12-12-12-12-|
D|-12-12-12-12-12-12-12-12-|-12-12-12-12-12-12-12-12-|



e|-----------------|------------------|
B|-----------------|------------------|
G|-----------------|------------------|
D|-----------------|------------------|
A|-8-8-8-8-8-8-8-8-|-8-8-8-8-8-8-8-8--|
D|-8-8-8-8-8-8-8-8-|-8-8-8-8-8-8-8-8--|



e|-------------------------|--------------------------|
B|-------------------------|--------------------------|
G|-------------------------|--------------------------|
D|-------------------------|--------------------------|
A|-10-10-10-10-10-10-10-10-|-10-10-10-10-10-10-10-10/-|
D|-10-10-10-10-10-10-10-10-|-10-10-10-10-10-10-10-10/-|



e|-------------------------|-------------------------|
B|-------------------------|-------------------------|
G|-------------------------|-------------------------|
D|-------------------------|-------------------------|
A|-13-13-13-13-13-13-13-13-|-13-13-13-13-13-13-13-13-|
D|-13-13-13-13-13-13-13-13-|-13-13-13-13-13-13-13-13-|


---Part 3---

    Gtr II

e|-------------------------|-------------------------|
B|-------------------------|-------------------------|
G|-------------------------|-------------------------|
D|-------------------------|-------------------------|
A|-12-12-12-12-12-12-12-12-|-12-12-12-12-12-12-12-12-|
D|-12-12-12-12-12-12-12-12-|-12-12-12-12-12-12-12-12-|
|
|   Gtr III
|  
e|-------------------------|-------------------------|
B|-------------------------|-------------------------|
G|--7--7--7--7--7--7--7--7-|--7--7--7--7--7--7--7--7-|
D|-------------------------|-------------------------|
A|--5--5--5--5--5--5--5--5-|--5--5--5--5--5--5--5--5-|
D|-------------------------|-------------------------|



e|-------------------------|---------------------------|
B|-------------------------|---------------------------|
G|-------------------------|---------------------------|
D|-------------------------|---------------------------|
A|-8---8--8--8--8--8--8--8-|--8--8--8--8--8---8--8--8--|
D|-8---8--8--8--8--8--8--8-|--8--8--8--8--8---8--8--8--|
|
| 
e|-------------------------|---------------------------|
B|-------------------------|---------------------------|
G|-7/-10-10-10-10-10-10-10-|-10-10-10-10-10/-12-12-14--|
D|-------------------------|---------------------------|
A|-5/--8--8--8--8--8--8--8-|--8--8--8--8--8/-10-10-12--|
D|-------------------------|---------------------------|



e|-------------------------|--------------------------|
B|-------------------------|--------------------------|
G|-------------------------|--------------------------|
D|-------------------------|--------------------------|
A|-10-10-10-10-10-10-10-10-|-10-10-10-10-10-10-10-10/-|
D|-10-10-10-10-10-10-10-10-|-10-10-10-10-10-10-10-10/-|
|
|  
e|-------------------------|--------------------------|
B|-------------------------|--------------------------|
G|-14-12-12-12-12-12-12-12-|-12-12-12-12-12-12-12-12/-|
D|-------------------------|--------------------------|
A|-12-10-10-10-10-10-10-10-|-10-10-10-10-10-10-10-10/-|
D|-------------------------|--------------------------|



e|-------------------------|---------------------------|
B|-------------------------|---------------------------|
G|-------------------------|---------------------------|
D|-------------------------|---------------------------|
A|-13-13-13-13-13-13-13-13-|-13--13-13-13--13-13-13-13-|
D|-13-13-13-13-13-13-13-13-|-13--13-13-13--13-13-13-13-|
|
|  
e|-------------------------|---------------------------|
B|-------------------------|---------------------------|
G|-15-15-15-15-15-15-14-14-|-14\-10-10-10\--7--7--7--7-|
D|-------------------------|---------------------------|
A|-13-13-13-13-13-13-12-12-|-12\--8--8--8\--5--5--5--5-|
D|-------------------------|---------------------------|


---Part 4---

    Gtr II

e|-------------------------|-------------------------|
B|-------------------------|-------------------------|
G|-------------------------|-------------------------|
D|-------------------------|-------------------------|
A|-12-12-12-12-12-12-12-12-|-12-11-11-11-11-11-11-11-|
D|--0--0--0--0--0--0--0--0-|--0--0--0--0--0--0--0--0-|


---Part 5---


    Gtr II
e|-------------------------|-------------------------|
B|-------------------------|-------------------------|
G|-------------------------|-------------------------|
D|-------------------------|-------------------------|
A|-12-12-12-12-12-12-12-12-|-12-11-11-11-11-11-11-11-|
D|--0--0--0--0--0--0--0--0-|--0--0--0--0--0--0--0--0-|
|
|   Gtr III    
|
e|-------------------------|-------------------------|
B|-------------------------|-------------------------|
G|--7--7--7--7--7--7--7--7-|--7--7--7--7--7--7--7--7-|
D|-------------------------|-------------------------|
A|--5--5--5--5--5--5--5--5-|--5--5--5--5--5--5--5--5-|
D|-------------------------|-------------------------|



e|-------------------------|--------------------------|
B|-------------------------|--------------------------|
G|-------------------------|--------------------------|
D|-------------------------|--------------------------|
A|-12-12-12-12-12-12-12-12-|-12-11-11-11-11-11-11-11--|
D|--0--0--0--0--0--0--0--0-|--0--0--0--0--0--0--0--0--|
|
|  
e|-------------------------|--------------------------|
B|-------------------------|--------------------------|
G|--7--7--7--7--7--7--7--7-|--7--7--7--7--7--7--7--7--|
D|-------------------------|--------------------------|
A|--5--5--5--5--5--5--5--5-|--5--5--5--5--5--5--5--5--|
D|-------------------------|--------------------------|



e|--------------------------|-------------------------|
B|--------------------------|-------------------------|
G|--------------------------|-------------------------|
D|--------------------------|-------------------------|
A|-12-12-12-12-12-12-12--12-|-12-11-11-11-11-11-11-11-|
D|--0--0--0--0--0--0--0---0-|--0--0--0--0--0--0--0--0-|
|
|  
e|--------------------------|-------------------------|
B|--------------------------|-------------------------|
G|--7--7--7--7--7--7--7/--9-|--9--9--9--9--9--9--9--9-|
D|--------------------------|-------------------------|
A|--5--5--5--5--5--5--5/--7-|--7--7--7--7--7--7--7--7-|
D|--------------------------|-------------------------|



e|--------------------------|--------------------------|
B|--------------------------|--------------------------|
G|--------------------------|--------------------------|
D|--------------------------|--------------------------|
A|-12-12-12-12-12-12-12--12-|-12-11-11-11-11-11-11--11-|
D|--0--0--0--0--0--0--0---0-|--0--0--0--0--0--0--0---0-|
|
|  
e|--------------------------|--------------------------|
B|--------------------------|--------------------------|
G|--9--9--9--9--9--9--9/-13-|-13-13-13-13-13-14-14\----|
D|--------------------------|--------------------------|
A|--7--7--7--7--7--7--7/-11-|-11-11-11-11-11-12-12\----|
D|--------------------------|--------------------------|


---Part 6---


e|-------------------------|-------------------------|
B|-------------------------|-------------------------|
G|-------------------------|-------------------------|
D|-------------------------|-------------------------|
A|-12-12-12-12-12-12-12-12-|-12-11-11-11-11-11-11-11-|
D|--0--0--0--0--0--0--0--0-|--0--0--0--0--0--0--0--0-|
|
|  
e|-------------------------|-------------------------|
B|-------------------------|-------------------------|
G|--3--3--3--3--3--3--3--3-|--3--3--3--3--3--3--3--3-|
D|-------------------------|-------------------------|
A|--1--1--1--1--1--1--1--1-|--1--1--1--1--1--1--1--1-|
D|-------------------------|-------------------------|



e|-------------------------|-------------------------|
B|-------------------------|-------------------------|
G|-------------------------|-------------------------|
D|-------------------------|-------------------------|
A|-12-12-12-12-12-12-12-12-|-12-11-11-11-11-11-11-11-|
D|--0--0--0--0--0--0--0--0-|--0--0--0--0--0--0--0--0-|
|
| 
e|-------------------------|-------------------------|
B|-------------------------|-------------------------|
G|--3--3--3--3--3--3--3--3-|--3--3--3--3--3--3--3--3-|
D|-------------------------|-------------------------|
A|--1--1--1--1--1--1--1--1-|--1--1--1--1--1--1--1--1-|
D|-------------------------|-------------------------|


   
e|-------------------------|-------------------------|
B|-------------------------|-------------------------|
G|-------------------------|-------------------------|
D|-------------------------|-------------------------|
A|-12-12-12-12-12-12-12-12-|-12-11-11-11-11-11-11-11-|
D|--0--0--0--0--0--0--0--0-|--0--0--0--0--0--0--0--0-|
|
|
e|-------------------------|-------------------------|
B|-------------------------|-------------------------|
G|--5--5--5--5--5--5--5--5-|--5--5--5--5--5--5--5--5-|
D|-------------------------|-------------------------|
A|--3--3--3--3--3--3--3--3-|--3--3--3--3--3--3--3--3-|
D|-------------------------|-------------------------|


  

e|-------------------------|-------------------------|
B|-------------------------|-------------------------|
G|-------------------------|-------------------------|
D|-------------------------|-------------------------|
A|-12-12-12-12-12-12-12-12-|-12-11-11-11-11-11-11-11-|
D|--0--0--0--0--0--0--0--0-|--0--0--0--0--0--0--0--0-|
|
|
e|-------------------------|-------------------------|
B|-------------------------|-------------------------|
G|--5--5--5--5--5--5--5--5-|--5--5--5--5--5--5--5--5-|
D|-------------------------|-------------------------|
A|--3--3--3--3--3--3--3--3-|--3--3--3--3--3--3--3--3-|
D|-------------------------|-------------------------|


---Part 7---


Slower=142

    Gtr I -- let ring
e|-----------------|-----0-----------|---8-----8-----8-|-----8-----8-----|
B|---7-----7-----7-|-----------7-----|-----8-----8-----|-8-----8-----8---|
G|-----7-----7-----|-7-----7-----7---|-------0-----0---|---0-----0-------|
D|-7-----7-----7---|---7-----7-----0-|-----------------|-----------------|
A|-----------------|-----------------|-8---------------|---------------0-|
D|-----------------|-----------------|-----------------|-----------------|



e|---3-----3-----3-|-----3-----3------|---5-----5-----3-|-----3-----3-----|
B|-----3-----3-----|-3-----3-----3----|-----3-----3-----|-3-----3-----3---|
G|-------0-----0---|---0-----0--------|-------3-----3---|---3-----3-------|
D|-----------------|---------------2\-|-0---------------|---------------0-|
A|-3---------------|------------------|-----------------|-----------------|
D|-----------------|------------------|-----------------|-----------------|



e|---10----------|-------------|---------*|
B|------10-------|-(10)--------|-(10)----*|
G|-9-------------|-------------|---------*|
D|---------------|-------------|---------*|
A|---------------|-------------|---------*|
D|---------------|-------------|---------*|


Order:

Intro/Verse 1
Part 1 x6

Chorus 1
Part 2 x2

Verse 2
Part 1 x3

Chorus 2
Part 2 x2

Bridge
Part 3 x2

Interlude 1
Part 4 x4

Interlude 2
Part 5 x2

Interlude 3
Part 6

Out-Chorus
Part 2 x2

Outro
Part 7

| /  slide up
| \  slide down
|
|
|Very simple, really. Enjoy :)
=============================================================================
comments
print report bad tab
2 comments total.
0 reply
Linkerman wrote on September 15 2009, 11:01 am

Seems pretty accurate to me. Five stars.

0 reply
internetexplore wrote on January 9 2013, 10:18 pm

I've been playing it this way for a while now, but with one modification:
Keep the guitar in standard tuning, play the verse chords as per normal (there's no need for drop tuning in this):

e|-------------------------|
B|-------------------------|
G|-------------------------|
D|-12-12-12-12-12-12-12-12-|
A|-12-12-12-12-12-12-12-12-|
D|-10-10-10-10-10-10-10-10-|

I also like to slide from the A# to the C during the chorus.

Cheers!

I want to post or [tab]
guest
You may want to rate the tab now too:
select rating
Please do not post tabs as comments. Select "correction" instead!