Oops, an error
Loading. Please wait.

All Your Love I Miss Loving Bass Tab

ver1
ver1

Whole song

Interactive

More versions @911Tabs.com
1,324 views 3 this week
no commentswrite comment
1 2 3 4 5
please rate
Autoscroll
+/-
esc
set tempo
stop
Contributor
Hey! There's an official Ultimate Guitar app which is ideal
for learning songs when you're away from computer. Get the app
WARNING: You are trying to view
                                    content from Ultimate-Guitar.com
                                    in an unauthorized application,
                                    which is prohibited.

                                    Please use an official Ultimate
                                    Guitar Tabs application for iPhone,
                                    iPad or Android to access legitimate
                                    chords, guitar, bass, and drum tabs
                                    from Ultimate-Guitar.com database.

                                    Type "ultimate guitar tabs" in Apple
                                    App Store's or Android Market's
                                    search to find the application.
             E.  S E  E  E  E  E  E     E  S S S S E  E.  S E  E   
G||-------|-----------------3--------|-------------------------3--|
D||-------|--5---5-5--3--5-----5--3--|--5-------------3---3-5-----|
A||-------|--------------------------|-----3-5-L-5-5--------------|
E||-------|--------------------------|----------------------------|


  E.  S E  E  E  E  E  E     E  S S S S E  E.  S E  E   
-----------------3--------|----------------------------|
--5---5-5--3--5-----5--3--|--5-------------3---3-5--5--|
--------------------------|-----3-5-L-5-5--------------|
--------------------------|----------------------------|


  E.  S E  E  E  E  E  E     E  S S S S E  E.  S E  E   
--------------------------|----------------------------|
-----------------1--------|----------------------------|
--3---3-3--1--3-----3--1--|--3-------------1---1-3--5--|
--------------------------|-----1-3-L-3-3--------------|


  E.  S E  E  E  E  E  E     E  S S S S E  E.  S E  E   
-----------------3--------|-------------------------3--|
--5---5-5--3--5-----5--3--|--5-------------3---3-5-----|
--------------------------|-----3-5-L-5-5--------------|
--------------------------|----------------------------|


  E.  S E.  S E  E  Q       E.  S E  E  Q    Q       E.  S E.  S E.  S E.  S  
-------------------------|------------------------|--------------------------|
-------------------------|------------------------|--5---5-5---5-------------|
--5---5-5---5-5--5--4----|--3---3-3--3--3----1----|--------------5---L-3---L-|
-------------------------|------------------------|--------------------------|


  Q    Q    Q    Q       E.  S E  E  E  E  E  E     E  S S S S E  E.  S E  E   
----------------------|-----------------3--------|-------------------------3--|
----------------------|--5---5-5--3--5-----5--3--|--5-------------3---3-5-----|
--1-------------------|--------------------------|-----3-5-L-5-5--------------|
----------------------|--------------------------|----------------------------|


  E.  S E  E  E  E  E  E     E  S S S S E  E.  S E  E   
-----------------3--------|----------------------------|
--5---5-5--3--5-----5--3--|--5-------------3---3-5--5--|
--------------------------|-----3-5-L-5-5--------------|
--------------------------|----------------------------|


  E.  S E  E  E  E  E  E     E  S S S S E  E.  S E  E   
--------------------------|----------------------------|
-----------------1--------|----------------------------|
--3---3-3--1--3-----3--1--|--3-------------1---1-3--5--|
--------------------------|-----1-3-L-3-3--------------|


  E.  S E  E  E  E  E  E     E  S S S S E  E.  S E  E   
-----------------3--------|-------------------------3--|
--5---5-5--3--5-----5--3--|--5-------------3---3-5-----|
--------------------------|-----3-5-L-5-5--------------|
--------------------------|----------------------------|


  E.  S E.  S E  E  Q       E.  S E  E  Q    Q       E.  S E.  S E.  S E.  S  
-------------------------|------------------------|--------------------------|
-------------------------|------------------------|--5---5-5---5-------------|
--5---5-5---5-5--5--4----|--3---3-3--3--3----1----|--------------5---L-3---L-|
-------------------------|------------------------|--------------------------|


  Q    Q    Q    Q       E.  S E  E  E  E  E  E     E  S S S S E  E.  S E  E   
----------------------|-----------------3--------|----------------------------|
----------------------|--5---5-5--3--5-----5--3--|--5-------------3---3-5--L--|
--1-------------------|--------------------------|-----3-5-L-5-5--------------|
----------------------|--------------------------|----------------------------|


  E.  S E  E  E  E  E  E     E  S S S S E  E.  S E  E   
-----------------3--------|----------------------------|
--5---5-5--3--5-----5--3--|--5-------------3---3-5--5--|
--------------------------|-----3-5-L-5-5--------------|
--------------------------|----------------------------|


  E.  S E  E  E  E  E  E     E  S S S S E  E.  S E  E   
--------------------------|----------------------------|
-----------------1--------|----------------------------|
--3---3-3--1--3-----3--1--|--3-------------1---1-3--5--|
--------------------------|-----1-3-L-3-3--------------|


  E.  S E  E  E  E  E  E     E  S S S S E  E.  S E  E   
-----------------3--------|-------------------------3--|
--5---5-5--3--5-----5--3--|--5-------------3---3-5-----|
--------------------------|-----3-5-L-5-5--------------|
--------------------------|----------------------------|


  E.  S E.  S E  E  Q       E.  S E  E  Q    Q       E.  S E.  S E.  S E.  S  
-------------------------|------------------------|--------------------------|
-------------------------|------------------------|--5---5-5---5-------------|
--5---5-5---5-5--5--4----|--3---3-3--3--3----1----|--------------5---L-3---L-|
-------------------------|------------------------|--------------------------|


  Q    Q    Q    Q       E.  S E  E  E  E  E  E     E  S S S S E  E.  S E  E   
----------------------|-----------------3--------|----------------------------|
----------------------|--5---5-5--3--5-----5--3--|--5-------------3---3-5--L--|
--1-------------------|--------------------------|-----3-5-L-5-5--------------|
----------------------|--------------------------|----------------------------|


  E.  S E  E  E  E  E  E     E  S S S S E  E.  S E  E   
-----------------3--------|----------------------------|
--5---5-5--3--5-----5--3--|--5-------------3---3-5--5--|
--------------------------|-----3-5-L-5-5--------------|
--------------------------|----------------------------|


  E.  S E  E  E  E  E  E     E  S S S S E  E.  S E  E   
--------------------------|----------------------------|
-----------------1--------|----------------------------|
--3---3-3--1--3-----3--1--|--3-------------1---1-3--5--|
--------------------------|-----1-3-L-3-3--------------|


  E.  S E  E  E  E  E  E     E  S S S S E  E.  S E  E   
-----------------3--------|-------------------------3--|
--5---5-5--3--5-----5--3--|--5-------------3---3-5-----|
--------------------------|-----3-5-L-5-5--------------|
--------------------------|----------------------------|


  E.  S E.  S E  E  Q       E.  S E  E  Q    Q       E.  S E.  S E.  S E.  S  
-------------------------|------------------------|--------------------------|
-------------------------|------------------------|--5---5-5---5-------------|
--5---5-5---5-5--5--4----|--3---3-3--3--3----1----|--------------5---L-3---L-|
-------------------------|------------------------|--------------------------|


  Q    Q    Q    Q       E.  S E  E  E  E  E  E     E  S S S S E  E.  S E  E   
----------------------|-----------------3--------|----------------------------|
----------------------|--5---5-5--3--5-----5--3--|--5-------------3---3-5--L--|
--1-------------------|--------------------------|-----3-5-L-5-5--------------|
----------------------|--------------------------|----------------------------|


  E.  S E  E  E  E  E  E     E  S S S S E  E.  S E  E   
-----------------3--------|----------------------------|
--5---5-5--3--5-----5--3--|--5-------------3---3-5--5--|
--------------------------|-----3-5-L-5-5--------------|
--------------------------|----------------------------|


  E.  S E  E  E  E  E  E     E  S S S S E  E.  S E  E   
--------------------------|----------------------------|
-----------------1--------|----------------------------|
--3---3-3--1--3-----3--1--|--3-------------1---1-3--5--|
--------------------------|-----1-3-L-3-3--------------|


  E.  S E  E  E  E  E  E     E  S S S S E  E.  S E  E   
-----------------3--------|-------------------------3--|
--5---5-5--3--5-----5--3--|--5-------------3---3-5-----|
--------------------------|-----3-5-L-5-5--------------|
--------------------------|----------------------------|


  E.  S E.  S E  E  Q       E.  S E  E  Q    Q       E.  S E.  S E.  S E.  S  
-------------------------|------------------------|--------------------------|
-------------------------|------------------------|--5---5-5---5-------------|
--5---5-5---5-5--5--4----|--3---3-3--3--3----1----|--------------5---L-3---L-|
-------------------------|------------------------|--------------------------|


  Q    Q    Q    Q       E  E  E  E  E  E  E  E     E  E  E  E  E  E  E  E   
----------------------|--------------------------|--------------------------|
----------------------|--------------------2--2--|--5--5--2--2--------------|
--1-------------------|--------2--2--5--5--------|--------------5--5--2--2--|
----------------------|--3--3--------------------|--------------------------|


  E  E  E  E  E  E  E  E     E  E  E  E  E  E  E  E   
--------------------------|--------------------------|
--------------------2--2--|--5--5--2--2--------------|
--------2--2--5--5--------|--------------5--5--2--2--|
--3--3--------------------|--------------------------|


  E  E  E  E  E  E  E  E     E  E  E  E  E  E  E  E   
--------------------2--2--|--5--5--2--2--------------|
--------2--2--5--5--------|--------------5--5--2--2--|
--3--3--------------------|--------------------------|
--------------------------|--------------------------|


  E  E  E  E  E  E  E  E     E  E  E  E  E  E  E  E   
--------------------------|--------------------------|
--------------------2--2--|--5--5--2--2--------------|
--------2--2--5--5--------|--------------5--5--2--2--|
--3--3--------------------|--------------------------|


  E  E  E  E  E  E  E  E     E  E  E  E  E  E  E  E   
--------------------4--4--|--------------------2--2--|
--------4--4--7--7--------|--------2--2--5--5--------|
--5--5--------------------|--3--3--------------------|
--------------------------|--------------------------|


  E  E  E  E  E  E  E  E     E  E  E  E  E  E  E  E   
--------------------------|--------------------------|
--------------------2--2--|--5--5--5--5--5--5--5--5--|
--------2--2--5--5--------|--------------------------|
--3--3--------------------|--------------------------|


  E  E  E  E  E  E  E  E     E  E  E  E  E  E  E  E   
--------------------------|--------------------------|
--------------------2--2--|--5--5--2--2--------------|
--------2--2--5--5--------|--------------5--5--2--2--|
--3--3--------------------|--------------------------|


  E  E  E  E  E  E  E  E     E  E  E  E  E  E  E  E   
--------------------------|--------------------------|
--------------------2--2--|--5--5--2--2--------------|
--------2--2--5--5--------|--------------5--5--2--2--|
--3--3--------------------|--------------------------|


  E  E  E  E  E  E  E  E     E  E  E  E  E  E  E  E   
--------------------2--2--|--5--5--2--2--------------|
--------2--2--5--5--------|--------------5--5--2--2--|
--3--3--------------------|--------------------------|
--------------------------|--------------------------|


  E  E  E  E  E  E  E  E     E  E  E  E  E  E  E  E   
--------------------------|--------------------------|
--------------------2--2--|--5--5--2--2--------------|
--------2--2--5--5--------|--------------5--5--2--2--|
--3--3--------------------|--------------------------|


  E  E  E  E  E  E  E  E     E  E  E  E  E  E  E  E   
--------------------4--4--|--------------------2--2--|
--------4--4--7--7--------|--------2--2--5--5--------|
--5--5--------------------|--3--3--------------------|
--------------------------|--------------------------|


  E  E  E  E  E  E  E  E     E  E  E  E  E  E  E  E   
--------------------------|--------------------------|
--------------------2--2--|--5--5--5--5--5--5--5--5--|
--------2--2--5--5--------|--------------------------|
--3--3--------------------|--------------------------|


  E  E  E  E  E  E  E  E     E  E  E  E  E  E  E  E   
--------------------------|--------------------------|
--------------------2--2--|--5--5--2--2--------------|
--------2--2--5--5--------|--------------5--5--2--2--|
--3--3--------------------|--------------------------|


  E  E  E  E  E  E  E  E     E  E  E  E  E  E  E  E   
--------------------------|--------------------------|
--------------------2--2--|--5--5--2--2--------------|
--------2--2--5--5--------|--------------5--5--2--2--|
--3--3--------------------|--------------------------|


  E  E  E  E  E  E  E  E     E  E  E  E  E  E  E  E   
--------------------2--2--|--5--5--2--2--------------|
--------2--2--5--5--------|--------------5--5--2--2--|
--3--3--------------------|--------------------------|
--------------------------|--------------------------|


  E  E  E  E  E  E  E  E     E  E  E  E  E  E  E  E   
--------------------------|--------------------------|
--------------------2--2--|--5--5--2--2--------------|
--------2--2--5--5--------|--------------5--5--2--2--|
--3--3--------------------|--------------------------|


  E  E  E  E  E  E  E  E     E  E  E  E  E  E  E  E   
--------------------4--4--|--------------------2--2--|
--------4--4--7--7--------|--------2--2--5--5--------|
--5--5--------------------|--3--3--------------------|
--------------------------|--------------------------|


  E  E  E  E  E  E  E  E     E  E  E  E  E  E  E  E   
--------------------------|--------------------------|
--------------------2--2--|--5--5--5--5--5--5--5--5--|
--------2--2--5--5--------|--------------------------|
--3--3--------------------|--------------------------|


  E  E  E  E  E  E  E  E     E  E  E  E  E  E  E  E   
--------------------------|--------------------------|
--------------------2--2--|--5--5--2--2--------------|
--------2--2--5--5--------|--------------5--5--2--2--|
--3--3--------------------|--------------------------|


  E  E  E  E  E  E  E  E     E  E  E  E  E  E  E  E   
--------------------------|--------------------------|
--------------------2--2--|--5--5--2--2--------------|
--------2--2--5--5--------|--------------5--5--2--2--|
--3--3--------------------|--------------------------|


  E  E  E  E  E  E  E  E     E  E  E  E  E  E  E  E   
--------------------2--2--|--5--5--2--2--------------|
--------2--2--5--5--------|--------------5--5--2--2--|
--3--3--------------------|--------------------------|
--------------------------|--------------------------|


  E  E  E  E  E  E  E  E     E  E  E  E  E  E  E  E   
--------------------------|--------------------------|
--------------------2--2--|--5--5--2--2--------------|
--------2--2--5--5--------|--------------5--5--2--2--|
--3--3--------------------|--------------------------|


  E  E  E  E  E  E  E  E     E  E  E  E  E  E  E  E   
--------------------4--4--|--------------------2--2--|
--------4--4--7--7--------|--------2--2--5--5--------|
--5--5--------------------|--3--3--------------------|
--------------------------|--------------------------|


  E  E  E  E  E  E  E  E     E  E  E  E  E  E  E  E   
--------------------------|--------------------------|
--------------------2--2--|--5--5--5--5--5--5--5--5--|
--------2--2--5--5--------|--------------------------|
--3--3--------------------|--------------------------|


  E  E  E  E  E  E  E  E     E  E  E  E  E  E  E  E   
--------------------------|--------------------------|
--------------------2--2--|--5--5--2--2--------------|
--------2--2--5--5--------|--------------5--5--2--2--|
--3--3--------------------|--------------------------|


  E  E  E  E  E  E  E  E     E  E  E  E  E  E  E  E   
--------------------------|--------------------------|
--------------------2--2--|--5--5--2--2--------------|
--------2--2--5--5--------|--------------5--5--2--2--|
--3--3--------------------|--------------------------|


  E  E  E  E  E  E  E  E     E  E  E  E  E  E  E  E   
--------------------2--2--|--5--5--2--2--------------|
--------2--2--5--5--------|--------------5--5--2--2--|
--3--3--------------------|--------------------------|
--------------------------|--------------------------|


  E  E  E  E  E  E  E  E     E  E  E  E  E  E  E  E   
--------------------------|--------------------------|
--------------------2--2--|--5--5--2--2--------------|
--------2--2--5--5--------|--------------5--5--2--2--|
--3--3--------------------|--------------------------|


  E  E  E  E  E  E  E  E     E  E  E  E  E  E  E  E   
--------------------4--4--|--------------------2--2--|
--------4--4--7--7--------|--------2--2--5--5--------|
--5--5--------------------|--3--3--------------------|
--------------------------|--------------------------|


  E  E  E  E  E  E  E  E     E  E  Q    H           E.  S E  E  E  E  E  E   
--------------------------|----------------------|-----------------3--------|
--------------------2--2--|--5-------------------|--5---5-5--3--5-----5--3--|
--------2--2--5--5--------|----------------------|--------------------------|
--3--3--------------------|----------------------|--------------------------|


  E  S S S S E  E.  S E  E     E.  S E  E  E  E  E  E   
-------------------------3--|-----------------3--------|
--5-------------3---3-5-----|--5---5-5--3--5-----5--3--|
-----3-5-L-5-5--------------|--------------------------|
----------------------------|--------------------------|


  E  S S S S E  E.  S E  E     E.  S E  E  E  E  E  E   
----------------------------|--------------------------|
--5-------------3---3-5--5--|-----------------1--------|
-----3-5-L-5-5--------------|--3---3-3--1--3-----3--1--|
----------------------------|--------------------------|


  E  S S S S E  E.  S E  E     E.  S E  E  E  E  E  E   
----------------------------|-----------------3--------|
----------------------------|--5---5-5--3--5-----5--3--|
--3-------------1---1-3--5--|--------------------------|
-----1-3-L-3-3--------------|--------------------------|


  E  S S S S E  E.  S E  E     E.  S E.  S E  E  Q       E.  S E  E  Q    Q     
-------------------------3--|-------------------------|------------------------|
--5-------------3---3-5-----|-------------------------|------------------------|
-----3-5-L-5-5--------------|--5---5-5---5-5--5--4----|--3---3-3--3--3----1----|
----------------------------|-------------------------|------------------------|


  E.  S E.  S E.  S E.  S    Q    Q    Q    Q       E.  S E  E  E  E  E  E   
--------------------------|----------------------|-----------------3--------|
--5---5-5---5-------------|----------------------|--5---5-5--3--5-----5--3--|
--------------5---L-3---L-|--1-------------------|--------------------------|
--------------------------|----------------------|--------------------------|


  E  S S S S E  E.  S E  E     E.  S E  E  E  E  E  E   
-------------------------3--|-----------------3--------|
--5-------------3---3-5-----|--5---5-5--3--5-----5--3--|
-----3-5-L-5-5--------------|--------------------------|
----------------------------|--------------------------|


  E  S S S S E  E.  S E  E     E.  S E  E  E  E  E  E   
----------------------------|--------------------------|
--5-------------3---3-5--5--|-----------------1--------|
-----3-5-L-5-5--------------|--3---3-3--1--3-----3--1--|
----------------------------|--------------------------|


  E  S S S S E  E.  S E  E     E.  S E  E  E  E  E  E   
----------------------------|-----------------3--------|
----------------------------|--5---5-5--3--5-----5--3--|
--3-------------1---1-3--5--|--------------------------|
-----1-3-L-3-3--------------|--------------------------|


  E  S S S S E  E.  S E  E     E.  S E.  S E  E  Q       E.  S E  E  Q    Q     
-------------------------3--|-------------------------|------------------------|
--5-------------3---3-5-----|-------------------------|------------------------|
-----3-5-L-5-5--------------|--5---5-5---5-5--5--4----|--3---3-3--3--3----1----|
----------------------------|-------------------------|------------------------|


  E.  S E.  S E.  S E.  S    Q    Q    Q    Q       E.  S E  E  E  E  E  E   
--------------------------|----------------------|-----------------3--------|
--5---5-5---5-------------|----------------------|--5---5-5--3--5-----5--3--|
--------------5---L-3---L-|--1-------------------|--------------------------|
--------------------------|----------------------|--------------------------|


  E  S S S S E  E.  S E  E     E.  S E  E  E  E  E  E   
-------------------------3--|-----------------3--------|
--5-------------3---3-5-----|--5---5-5--3--5-----5--3--|
-----3-5-L-5-5--------------|--------------------------|
----------------------------|--------------------------|


  E  S S S S E  E.  S E  E     E.  S E  E  E  E  E  E   
----------------------------|--------------------------|
--5-------------3---3-5--5--|-----------------1--------|
-----3-5-L-5-5--------------|--3---3-3--1--3-----3--1--|
----------------------------|--------------------------|


  E  S S S S E  E.  S E  E     E.  S E  E  E  E  E  E   
----------------------------|-----------------3--------|
----------------------------|--5---5-5--3--5-----5--3--|
--3-------------1---1-3--5--|--------------------------|
-----1-3-L-3-3--------------|--------------------------|


  E  S S S S E  E.  S E  E     E.  S E.  S E  E  Q       E.  S E  E  Q    Q     
-------------------------3--|-------------------------|------------------------|
--5-------------3---3-5-----|-------------------------|------------------------|
-----3-5-L-5-5--------------|--5---5-5---5-5--5--4----|--3---3-3--3--3----1----|
----------------------------|-------------------------|------------------------|


  E.  S E.  S E.  S E.  S    Q    Q    Q    Q       E  E  E  E  E  E  E  E   
--------------------------|----------------------|--------------------------|
--5---5-5---5-------------|----------------------|--------------------2--2--|
--------------5---L-3---L-|--1-------------------|--------2--2--5--5--------|
--------------------------|----------------------|--3--3--------------------|


  E  E  E  E  E  E  E  E     E  E  E  E  E  E  E  E   
--------------------------|--------------------------|
--5--5--2--2--------------|--------------------2--2--|
--------------5--5--2--2--|--------2--2--5--5--------|
--------------------------|--3--3--------------------|


  E  E  E  E  E  E  E  E     E  E  E  E  E  E  E  E   
--------------------------|--------------------2--2--|
--5--5--2--2--------------|--------2--2--5--5--------|
--------------5--5--2--2--|--3--3--------------------|
--------------------------|--------------------------|


  E  E  E  E  E  E  E  E     E  E  E  E  E  E  E  E   
--5--5--2--2--------------|--------------------------|
--------------5--5--2--2--|--------------------2--2--|
--------------------------|--------2--2--5--5--------|
--------------------------|--3--3--------------------|


  E  E  E  E  E  E  E  E     E  E  E  E  E  E  E  E   
--------------------------|--------------------4--4--|
--5--5--2--2--------------|--------4--4--7--7--------|
--------------5--5--2--2--|--5--5--------------------|
--------------------------|--------------------------|


  E  E  E  E  E  E  E  E     E  E  E  E  E  E  E  E   
--------------------2--2--|--------------------------|
--------2--2--5--5--------|--------------------2--2--|
--3--3--------------------|--------2--2--5--5--------|
--------------------------|--3--3--------------------|


  E  E  E  E  E  E  E  E     E  E  E  E  E  E  E  E   
--------------------------|--------------------------|
--5--5--5--5--5--5--5--5--|--------------------2--2--|
--------------------------|--------2--2--5--5--------|
--------------------------|--3--3--------------------|


  E  E  E  E  E  E  E  E     E  E  E  E  E  E  E  E   
--------------------------|--------------------------|
--5--5--2--2--------------|--------------------2--2--|
--------------5--5--2--2--|--------2--2--5--5--------|
--------------------------|--3--3--------------------|


  E  E  E  E  E  E  E  E     E  E  E  E  E  E  E  E   
--------------------------|--------------------2--2--|
--5--5--2--2--------------|--------2--2--5--5--------|
--------------5--5--2--2--|--3--3--------------------|
--------------------------|--------------------------|


  E  E  E  E  E  E  E  E     E  E  E  E  E  E  E  E   
--5--5--2--2--------------|--------------------------|
--------------5--5--2--2--|--------------------2--2--|
--------------------------|--------2--2--5--5--------|
--------------------------|--3--3--------------------|


  E  E  E  E  E  E  E  E     E  E  E  E  E  E  E  E   
--------------------------|--------------------4--4--|
--5--5--2--2--------------|--------4--4--7--7--------|
--------------5--5--2--2--|--5--5--------------------|
--------------------------|--------------------------|


  E  E  E  E  E  E  E  E     E  E  E  E  E  E  E  E   
--------------------2--2--|--------------------------|
--------2--2--5--5--------|--------------------2--2--|
--3--3--------------------|--------2--2--5--5--------|
--------------------------|--3--3--------------------|


  E  E  E  E  E  E  E  E     E  E  E  E  E  E  E  E   
--------------------------|--------------------------|
--5--5--5--5--5--5--5--5--|--------------------2--2--|
--------------------------|--------2--2--5--5--------|
--------------------------|--3--3--------------------|


  E  E  E  E  E  E  E  E     E  E  E  E  E  E  E  E   
--------------------------|--------------------------|
--5--5--2--2--------------|--------------------2--2--|
--------------5--5--2--2--|--------2--2--5--5--------|
--------------------------|--3--3--------------------|


  E  E  E  E  E  E  E  E     E  E  E  E  E  E  E  E   
--------------------------|--------------------2--2--|
--5--5--2--2--------------|--------2--2--5--5--------|
--------------5--5--2--2--|--3--3--------------------|
--------------------------|--------------------------|


  E  E  E  E  E  E  E  E     E  E  E  E  E  E  E  E   
--5--5--2--2--------------|--------------------------|
--------------5--5--2--2--|--------------------2--2--|
--------------------------|--------2--2--5--5--------|
--------------------------|--3--3--------------------|


  E  E  E  E  E  E  E  E     E  E  E  E  E  E  E  E   
--------------------------|--------------------4--4--|
--5--5--2--2--------------|--------4--4--7--7--------|
--------------5--5--2--2--|--5--5--------------------|
--------------------------|--------------------------|


  E  E  E  E  E  E  E  E     E  E  E  E  E  E  E  E   
--------------------------|--------------------------|
--------------------------|--------------------------|
--3-----------------------|--------------------------|
--------------------------|--------------------------|


  |-----3-----|                                                          
  Q     Q     Q     Q     E   E      Q     E   E   H                     
---------------------------------|--------------------------|-----------|
---------------------------------|--------------------------|-----------|
-------12----11----10----12--11--|--10----12--11--10--------|-----------|
---------------------------------|--------------------------|-----------|


-----------||
-----------||
-----------||
-----------||




Duration Legend
---------------
W - whole
H - half
Q - quarter
E - 8th
S - 16th
T - 32nd
X - 64th
. - note dotted
|-n-|  - n-tuplets


Tablature Legend
----------------
L - tied note
x - dead note
g - grace note
(n) - ghost note
> - accentuded note
NH - natural harmonic
AH - artificial harmonic
TH - tapped harmonic
SH - semi harmonic
PH - pitch harmonic
h - hammer on
p - pull off
b - bend
br - bendRelease
pb - preBend
pbr - preBendRelease
brb - bendReleaseBend
\n/ - tremolo bar dip
\n - tremolo bar dive
-/n - tremolo bar Release up
/n\ - tremolo bar inverted dip
/n - tremolo bar return
-\n - tremolo bar Release down
S - shift slide
s - legato slide
/ -  slide into from below or out of upwards
\ -  slide into from above or out of downwards
~ - vibrato
W - wide vibrato
tr - trill
TP - tremolo picking
T - tapping
S - slap
P - pop
< - fade in
^ - brush up
v - brush down
comments
We did not receive enough feedback on this tab! Please rate:
print report bad tab
1 2 3 4 5
I want to post or [tab]
guest
You may want to rate the tab now too:
select rating
Please do not post tabs as comments. Select "correction" instead!