Oops, an error
Loading. Please wait.

Hide Away Tab

55,398 views 60 this week
2 commentsread comments
1 2 3 4 5
excellent!
x 11
Autoscroll
+/-
esc
set tempo
stop
Contributor
WARNING: You are trying to view
                                    content from Ultimate-Guitar.com
                                    in an unauthorized application,
                                    which is prohibited.

                                    Please use an official Ultimate
                                    Guitar Tabs application for iPhone,
                                    iPad or Android to access legitimate
                                    chords, guitar, bass, and drum tabs
                                    from Ultimate-Guitar.com database.

                                    Type "ultimate guitar tabs" in Apple
                                    App Store's or Android Market's
                                    search to find the application.
                          Hide Away

This is from the “Live at Montreux” DVD ON July 17,1982. Tuned down Half a Step.

E|-------0-2-2s4---------------0-----0-----0-----0----------------------------|
B|-0-0h2-------------------------0h2---0h2---0h2-----0------------------------|
G|-----------------------------------------------------2-0h1p0h1--------------|
D|----------------------------------------------------------------------------|
A|----------------2-4-4-2-2-4------------------------------------2-4-4-2-2----|
E|----------------0-0-0-0-0-0------------------------------------0-0-0-0-0----|

E|-------------------------------------------0-----0-2s4~-2p0---0---------0-2---0--|
B|---------------------------------------------0h2------------2-0---------0-2---0--|
G|------------------------------------------------------------------------0-2------|
D|------------------------2-2-4-4-5-5-4-4-2----------------------------------------|
A|-4-4-2-2-4-4-2-2--------0-0-0-0-0-0-0-0-0-----------------------2-4-4-2----------|
E|-0-0-0-0-0-0-0-0-0-3-4------------------------------------------0-0-0-0-----0----|

E|----------0-----0-0h2-2-2-0-2s4~-0-0h2p0------0----0----0~----------0------0------------|
B|------------0h2--------------------------2-0h2--0h2-0h2-0~-0--------0----3-3—3----------|
G|-------------------------------------------------------------2-0h1----/4---4---4\2p0----|
D|-------------------------------------------------------------------------------------2--|
A|-2-4-4-2--------------------------------------------------------------------------------|
E|-0-0-0-0--------------------------------------------------------------------------------|

E|-------0----0-----0---------0-----0-----0-----0~-------------0------0-0--------------|
B|-0------------0h2---0trill2---0h2---0h2---0h2-0~-0-----------0----3-3-3--------------|
G|-0h1-----2~----------------------------------------2-0h1p0h1---/4---4-4-2p0----------|
D|-----2-------------------------------------------------------------------------------|
A|-------------------------------------------------------------------------------------|
E|-------------------------------------------------------------------------------------|

E|-------0-2---------0-----0---------0-----0-----0-----0-------------------0-2---0--|
B|---0---0-2----0------0h2---0trill2---0h2---0h2---0h2----0----------------0-2---0--|
G|---0h1---2----0h1-----------------------------------------2-0h1------------2---0--|
D|-2----------2---------------------------------------------------------------------|
A|-----------------------------------------------------------------2-4-4-2----------|
E|-----------------------------------------------------------------0-0-0-0-----0----|

E|---------0-----0-0h2-2-2-0-2s4~-0-0h2p0-------0-----0-----0-----------------------|
B|-----------0h2--------------------------2-0h2---0h2---0h2---0---------------------|
G|--------------------------------------------------------------2-0h1---------------|
D|----------------------------------------------------------------------------------|
A|-2-4-4-2--------------------------------------------------------------------------|
E|-0-0-0-0--------------------------------------------------------------------------|

1.            2.
E|-0-------0-------------------------0-----|-----------------------|--------|----------|
B|-0----3--3--3-----------------0----0-----|o---------------------o|--------|----------|
G|---/4----------4\2p0---0h1------2~---2-0-|-----------------------|--------|----------|
D|---------------------2------2------------|-----------------------|-0h2--2-|-2--------|
A|-----------------------------------------|o-----------2-5-2-4-2-o|--------|----------|
E|-----------------------------------------|-0---0-3/4-------------|--------|---0h3/4--|

E|----------------------------0------------------------------------------------------0--|
B|--------------------------------------------------------------------------------------|
G|--------------------------------------------------------------------------------------|
D|-------------2-5-2-4-2--0h2---2----------------------2-------------------------0h2----|
A|-0---0-3/4---------------------------------2-5—2-4-2----------2--/6--4-7-4-6-4--------|
E|---------------------------------0--0-3/4--------------0-3-4--------------------------|

                            7x                         3x
E|--------------------------|--------------|-----------|-------------|
B|--------------------------|o------------o|-----------|o-----------o|
G|--------------------------|--------------|-----------|-------------|
D|----------2-5-2-4-2-----2-|--------------|-----------|----0-----2-o|
A|--------------------------|o----0-----2-o|---2-2-----|o-0---3h4----|
E|-0--0-3/4-----------3/4---|---0---3/4----|-0-----3h4-|-------------|


E|-----------|-------------|---------------------------------|
A|-----------|o-----------o|---------------------------------|
G|-----------|-------------|---------------------------------|
D|---0-------|-------------|----------------------4-4-6p4----|
A|-0-------2-|o---0-----2-o|---0-----2--2-2--/6-6---------6--|
E|-----3/4---|--0---3/4----|-0---3/4-------------------------|

                                                                      2x
E|------------------------------------------------------------------(--12---)-12\-9-7-4-2-0--|
B|------------------------------------------------------------------(--9----)—-9\------------|
G|-----------------------0---1-----2------3-----4-------------------(--11-7x)-11\-9-7-4-2-0--|
D|----------2-2-4p2-------------------------------------------------(--12---)-12\------------|
A|-0-0-/4-4---------4------2---2/3----3/4---4/5------0-1-2-0trill2~--------------------------|
E|--------------------0----------------------------3-----------------------------------------|

E|-2/4-2-0-4-2-0-2/4--------------------------0-----0-----0--------------0------0-----------|
B|----------------------------------------------0h2---0h2----0-----------0----3-3-3---------|
G|-2/4-2-0-4-2-0-2/4-------------------------------------------2-0h1p0h1---/4-------4\2p0---|
D|--------------------------2-2-4-4-5-5-4-4-2---------------------------------------------2-|
A|--------------------------0-0-0-0-0-0-0-0-0-----------------------------------------------|
E|--------------------0-3-4-----------------------------------------------------------------|

E|------0--------------0-----0-0h2-2-2-0-2s4~-0-0h2p0-------0-----0-----0---|
B|------0-2--------------0h2--------------------------2-0h2---0h2---0h2-----|
G|--0h1---2---0h1p0h1-------------------------------------------------------|
D|----------2---------------------------------------------------------------|
A|--------------------------------------------------------------------------|
E|--------------------------------------------------------------------------|

                                                    4x
E|-------------0------0---------------------0---x-|-------------------|-------------------|
B|-0-----------0----3-3-3---------------0-------x-|o-----------------o|o-----------------o|
G|---2-0h1p0h1---/4-------4\2p0---0h1-----2~--2-x-|-------------------|-------------------|
D|------------------------------2-----2-----------|-------------------|-------------------|
A|------------------------------------------------|o-----------------o|o-0-0-2-0-3-0-5-4-o|
E|------------------------------------------------|--0-0-2-0-3-0-5-4--|-------------------|


e|-------------------|--------------------------------------------------------------------|
B|o-----------------o|--------------------------------------------------------------------|
G|-------------------|----------------------------------------------------------------2---|
D|-------------------|-------------2-1-------------------------------0-------2--------x---|
A|o-----------------o|-2-2-4-2-5-2-----0-0-2-0-3-0-5-4--------0--1-2---2p0-----5p2-2--2---|
E|--0-0-2-0-3-0-5-4--|----------------------------------0-0-4--------------3--------------|

 |---------4x--------|  |-------2x------| |-------2x-------------------------------------|
E----------------------------------------------------------------------------------------|
B----------------------------------------------------------------------------------------|
G--------------------------------------2-----------------------------------------4-------|
D-----------------2----2-2-----2-2-2h4---2------------------2--------0-1-4-4-4h6---4-----|
A-2-2-----2-2-2h4---2--0-0-3-4--------------2-2-----2-2-2h4---2--2-2---------------------|
E-0-0-3-4-----------------------------------0-0-3-4--------------------------------------|

                                                                      2x
E|-----------------------------------------------------------------(--12---)-12\--|
B|-----------------------------------------------------------------(--9----)—-9\--|
G|-----------------2-----0---1-----2------3-----4------------------(--11-7x)-11\--|
D|---------2-2-2h4---2---------------------------------------------(--12---)-12\--|
A|-0-0-3-4-----------------2---2/3----3/4---4/5------0-1-2-0trill2~---------------|
E|---------------------0---------------------------3------------------------------|


                             |---2x-------------------------------------------|
e|----------------------------(--12---)-12\-----------------------------------|
B|----------------------------(--11---)—-9\----------------14~----------------|
G|-2p0---2-0------------------(---9-7x)-11\-14b16r14p12----14~-12-------------|
D|-----2-----2p0-----------2--(--12---)-12\-------------14--------14p12-------|
A|---------------2-0h2p0------------------------------------------------14----|
E|-----------------------3---0------------------------------------------------|

                           |---2x------------|
e|----------------------12~-(--12---)-12~----|
B|----------------------11~-(---9---)--9~----|
G|-----------------------9~-(--11-7x)-11~----|
D|----------------------12~-(--12---)-12~----|
A|-14p12\10----12-10h11----------------------|
E|----------12-------------------------------|

Then he goes on to Rude Mood
comments
print report bad tab
2 comments total.
+1 reply
stef123 wrote on June 21 2007, 02:35 pm

good tab. this helped me a lot!

+2 reply
slash&angus wrote on December 24 2007, 07:09 am

awsome
but i don't get the scale
how can you do 2-4
??
but it's good tabbed

I want to post or [tab]
guest
You may want to rate the tab now too:
select rating
Please do not post tabs as comments. Select "correction" instead!