Oops, an error
Loading. Please wait.

Pride And Joy Tab

ver3
ver3

Solo

Whole song

Interactive

Video

More versions @911Tabs.com
28,963 views 26 this week
3 commentsread comments
1 2 3 4 5
accurate
x 6
Autoscroll
+/-
esc
set tempo
stop
Contributor
Difficulty
intermediate
Hey! There's an official Ultimate Guitar app which is ideal
for learning songs when you're away from computer. Get the app
WARNING: You are trying to view
                                    content from Ultimate-Guitar.com
                                    in an unauthorized application,
                                    which is prohibited.

                                    Please use an official Ultimate
                                    Guitar Tabs application for iPhone,
                                    iPad or Android to access legitimate
                                    chords, guitar, bass, and drum tabs
                                    from Ultimate-Guitar.com database.

                                    Type "ultimate guitar tabs" in Apple
                                    App Store's or Android Market's
                                    search to find the application.
Artist - Stevie Ray Vaughan
Song - Pride And Joy
Tuning - Eb,Ab,Db,Gb,Bb,Eb

Intro(0:00)
   Blues Shuffle = 128
Guitar w/ distortion
|-0----0-0-0-0-0----7-7^-7^-7^-7^-7^-7^\---0----0-0-0-0-0-0-0-|
|-3/5--5-5-5-5-5----8-8^-8^-8^-8^-8^-8^\---3/5--5-5-5-5-5-5-5-|
|----------------0----------------------0---------------------|
|----------------0----------------------0---------------------|
|----------------0----------------------0---------------------|
|-------------------------------------------------------------|

|-0--------------------------------------------0-2---0-0--------------|
|-5\----------0---0----0---0---0---0---0---0---0-2---0-0----0---0---0-|
|---0-2^--(2)-0---0----0---0---0---0---0---0---0-2---1-0----0---0---0-|
|---0---------0-2-0----0---0---0---0-2-0---0-------2--------0---0---0-|
|---0----------------2-------2---4-----------2-----2----------2---4---|
|--------------------0---3h4-------------3h4-------0------3h4---------|

|-----------0-2-0---0---0-------------------0-2---0-0-------------|
|---0---0---0-2-0---0---0---0---0---0---0---0-2---0-0---0---0---0-|
|---0---0---0-2-0-2-0---0---0---0-2-0---0---0-2---1-0---0---0---0-|
|-2-0---0---------2-------2-0-4-0---0-----2-----2-2-0---0---0---0-|
|---------2-------0---3h4-------------3h4-------2---------2---4---|
|-----3h4---------------------------------------0-----3h4---------|

|---------------------------------------------------------------------------------------------|
|---0---0---0-----3-0---3----------------------------------------------0-2/3-3-3--3-3-3-------|
|---0---0---0-2/4---2/4---4\2p0----------------------------------------0-3/4-4-4--4-4-4-2-0---|
|-2-0---0---0-------------------2-------0-1-2-0-----------------2--(2)-0--------------------2-|
|---------2-----------------------0h2-2-------0-2-1-0h1p0---0---------------------------------|
|-----3h4-------------------------------------------------3---3-----0-------------------------|

|----------------------|
|----------------0---0-|
|----------------0---0-|
|-(2)------------0---0-|
|------0-1-2-(2)-------|
|--0-3-----------------|

1st Verse(0:31)
|------------------------------------0-0-------------|
|-0---0---0---0---0---0--------------0-0---0---0---0-|
|-0---0---0---0---0---0---2^-(2)p0---1-0---0---0---0-|
|-0---0---0---0---0---0------------2-------0---0---0-|
|----------------------------------2-----------------|
|----------------------------------------------------|

|-----------0----------------3-3-(3)^-0---0---0---0---0---0-|
|-0---0---0-0--x---0---0---2-2-2-(2)^-0---0---0---0---0---0-|
|-0---0---0-0--x---0---0---2-2-2-(2)^-0---0---0---0---0---0-|
|-0---0---0-0--x---0---0---2-2-2-(2)^-0---0---0---0---0---0-|
|------------------0---0------------------------------------|
|-----------------------------------------------------------|

|-0---0---0---0-----------------------------0-2---0-0-------0~-0-------|
|-0---0---0---0-----------------0---0---0---0-2---0-0-----3~---3-------|
|-1---1---1---1-----4---4---4---0---0---0---0-2---1-0-2/4------4\2p0---|
|-2---2---2---2p0---4---4-4-4-6-0-2-0-----2-0---2--------------------2-|
|-----------------2---5h6-0---0---0---3h4-0-----2----------------------|
|----------------------------------------------------------------------|

|----------------------|
|----------------0---0-|
|----------------0---0-|
|-(2)------------0---0-|
|------0-1-2-(2)-------|
|--0-3-----------------|

2nd Verse(0:54)
|-0---0---0---0---0---0---0---0---0---0---0---0-|
|-0---0---0---0---0---0---0---0---0---0---0---0-|
|-1---1---1---1---1---1---1---1---1---1---1---1-|
|-2---2---2---2---2---2---2---2---2---2---2---2-|
|-----------------------------------------------|
|-----------------------------------------------|

|-0---0---0---------3-3-(3)^---3-3-(3)^-----------------------0-0-2-0-|
|-0---0---0-----------2-(2)^---2-2-(2)^-0-----------0---0-2---0-0-2-0-|
|-1---1---1-----------2-(2)^-2-2-2-(2)^-0-----------0-1-1-2---1-1-2-1-|
|-2---2---2------------------2-2-2-(2)^-0-----------0-2-2-2-2---------|
|---------------0-0---------------------------2-2-4---2---------------|
|-----------3-4---------------------------3-4---------0---------------|

|-0-2---0-0------------------------------------------------------------------|
|-0-2---0-0-2-0---------------0-----------------------0-2/3-3-3--3-3-3---0---|
|-1-2---1-1-2-0-4-4---4---4---0-----------------------0-3/4-4-4--4-4-4\2-0---|
|-2-2-2-2-2-2-0-4-4---4-4-4-6-0-2-2-----2-2-5p0-2-(2)----------------------2-|
|---------------2---5-6-0---0---0-0-3-4-0-0----------------------------------|
|--------------------------------------------------0-------------------------|

|---------------------|
|---------------0-0-0-|
|---------------0-1-1-|
|---------------0-2-2-|
|-----0-1-2-(2)-------|
|-0-3-----------------|

3rd Verse(1:17)
|--------0---------0----------------0----------|
|-0----0-0---------0----0-----------0--------0-|
|-1----0-2^-(2)0---1----0-2^-(2)0---1--------0-|
|-2----0---------2-2----0---------2-2--------0-|
|----------------------------------------------|
|----------------------------------------------|

|-----0-0--0-0-0--0-0-0-----------------------3-0-------0-2---0-------0--------------|
|-2/3-3-3--3-3-3--3-3-3---0-------------------2-0---0---0-2---0-0---0---3p0----------|
|-3/4-4-4--4-4-4--4-4-4\2-0-----2-2---2-2-----2-0---0---0-2---1-0-2^--------2^-2p0---|
|---------------------------2-2-2-2---2-2-4-2-2-0---x-2-----2-2-0------------------2-|
|-----------------------------0-0-3-4-0-0-0-0-0-0-3-4-------2------------------------|
|-----------------------------------------------------------0------------------------|

|-----0------0-----------------------2-----2-(2)-2---3p0-------0-------------------------0~-0-------|
|-----0---3^-0-------0---------------0-----0-(0)-0-------3-----3-----------------0-----3~3~-3-------|
|-----1--------0h1p0-0---------2-(2)-2---2-2-(2)---0-------2/4-4-2-0-------------0-2/4------4\2p0---|
|-(2)-2-2------------0---------1-(1)-----1---------0-----------------2-0-1-2-(2)-0----------------2-|
|--2----2----------------0-1-2---------------------0------------------------------------------------|
|--0----0--------------3---------------2--------------------------------------0---------------------|

|---------------------0--0--|
|---------------0-/12-12-12-|
|---------------0-/13-13-13-|
|---------------0-----------|
|-----0-1-2-(2)-------------|
|-0-3-----------------------|

1st Guitar Solo(1:39)
|-----0--0--0--0--0--0--0--0--0--0--0------0--0--0--0--0--0--0--0--0--0--0------0--0--0--0--0--0--0--0--0--0-----|
|-/12-12-12-12-12-12-12-12-12-12-12-12-/15-15-15-15-15-15-15-15-15-15-15-15-/12-12-12-12-12-12-12-12-12-12-12-12-|
|-/13-13-13-13-13-13-13-13-13-13-13-13-/16-16-16-16-16-16-16-16-16-16-16-16-/13-13-13-13-13-13-13-13-13-13-13----|
|----------------------------------------------------------------------------------------------------------------|
|----------------------------------------------------------------------------------------------------------------|
|----------------------------------------------------------------------------------------------------------------|

|-------12-----12-12-----12-12-15^-12-------12-12--------------------------------------------------------------------12-12-|
|----12-12-15^-12-12-15^-12-12-----12-12----12-12-15--------------------------------------------------------------12----12-|
|-14^------------------------------------14^---------14^-(14)12----12-14^-14^-14^-(14)-14p12----12~----------0-14^---------|
|---------------------------------------------------------------14---------------------------14-----14p12----0-------------|
|---------------------------------------------------------------------------------------------------------14-0-------------|
|--------------------------------------------------------------------------------------------------------------------------|

|-12--------------------0~---------------2~----2~-------/17\-0-3^-0--------------------0---------0-0--------|
|-15------------0-------0~---------------0~----0~---0-0------0-3^-0-3------------------------3-3-3-3--------|
|----\2^-(2)(2)-0---0h1------------2-(2)-----2-2~-x/0-0-------------3-2-3p2-(2)0---------2/4-4-4-4-4-2-0----|
|-----------------2----------------1-(1)-----1------0-0--------------------------2-(2)-------------------2~-|
|----------------------------0-1-2--------------------------------------------------2-----------------------|
|--------------------------3---------------2----------------------------------------0-----------------------|

|-------3-2-(2)-0-----0-0-0-0-0-0-0-0-0-0-0-0-0---7-7^-7-(7)^-7^------------0-----0-0-(0)0---|
|-------3-2-(2)-0-3/5-5-5-5-5-5-5-5-5-5-5-5-5-5---8-8^-8-(8)^-8^-----------/5-----5-5-(5)5---|
|-0h1---3-2-(2)-0------------------------------------------------9\2p0--------0-0----------0-|
|-----0-----------------------------------------0----------------------2------0-0----------0-|
|-----0-----------------------------------------0-----------------------------0-0----------0-|
|-----0-----------------------------------------0------------------------0-------------------|

|-7-7^-7^-7^-7^-7-------0-0-0-0-0-0-0-0-0--------------0~----0---------------|
|-8-8^-8^-8^-8^-8---7/8-8-8-8-8-8-8-8-8-8-8------------0~-3^-0-3-----3-------|
|-----------------0-8/9-9-9-9-9-9-9-9-9-9-9-\2p0---0h1-----------2/4-4-2-0---|
|-----------------0------------------------------2-------------------------2-|
|-----------------0----------------------------------------------------------|
|----------------------------------------------------------------------------|

|-----0------0-------0--------------2-----2-2-2-0-3^-0-------0-----------------------0~-------|
|---------3^-0-------0--------------0-----0-0-0-0------3-----3---------------0-----3-3~-------|
|--------------0h1p0-0---------2-(2)----2---2-2-0--------2/4-4\2-0-----------0-2/4---4~\2p0---|
|-(2)---2----------------------1-(1)----1--------------------------2-0-1-2---0--------------2-|
|-------2----------------0-1-2----------------------------------------------------------------|
|--0-------------------3--------------2------------------------------------0------------------|

|---------------------|
|---------------0---0-|
|---------------0---0-|
|---------------0---0-|
|-----0-1-2-(2)-------|
|-0-3-----------------|

4th Verse(2:25)
|-----------------------0---|
|-0---0-----------------0-0-|
|-0---0--------2^-(2)p0-1-0-|
|-0---0-----------------2-0-|
|---------------------------|
|---0-----------------------|
    .

|-------------------3-3-(3)---3-3-(3)^---------0---0---0---0-|
|-------------------2-2-(2)-2-2-2-(2)^-0---0---0---0---0---0-|
|-0---0---0---0-----2-2-(2)-2-2-2-(2)^-0---0---1---1---1---1-|
|-0---0---0---0---2-2-2-(2)-2-2-2-(2)^-0---0---2-------------|
|-----------------0------------------------------------------|
|------------------------------------------------------------|

|-0---0-0-0-0----------2~-(2)-2---2-------3---3-3---------0---------------------|
|-0---0---0---0--------0~-(0)-0-----------2---2-2---------0-----3-3-3-3-3---0---|
|-1---1---1---0------2-2~-(2)-2-----0-2-2-2-2-2-2---------0-2/4-4-4-4-4-4-2-0---|
|-------------0----1-1--------------0-2-2---2-------2-(2)---------------------2-|
|----------------2-2-2--------------0-0-0---0-----------------------------------|
|-------------------------------2-----------------3^---0------------------------|

|---------------0-----|
|---------------0---0-|
|---------------0-1-0-|
|---------------0-2-0-|
|-----0h1-2-(2)-0-2-0-|
|-0-3-------------0---|

5th Verse(2:47)
|---0---0---0---0---0---0-0-0-0-0---0---0---0---0-|
|---0---0---0---0---0---0---0---0---0---0---0---0-|
|-1-1---1---1---1---1---1---1---1---1---1---1---1-|
|-2-2---2---2---2---2---2---2---2---2---2---2---2-|
|-2-----------------------------------------------|
|-0-------------------------------0---------------|

|---0---0---0---------3-3-(3)^---3-(3)^-------------------2---0---2---|
|---0---0---0---------2-2-(2)^-2-2-(2)^-0-----------------2---0---2---|
|---1---1---1---------2-2-(2)^-2-2-(2)^-0---0-------0-----2-0-1---2---|
|---2---2---2---------2-2-(2)^-2-2-(2)^-0---0-2-2-4-0-----2-0-2-2-2-2-|
|-----------------0-0-----------------------x-0-0-0-0-------0---2---2-|
|-0-------0---3-4-------------------------3-4---------0-0-------0---0-|

|---------0-0-(0)0---------2~--2~--------3-(3)^-0-----------------------------------------|
|-----2---0-0-(0)0---------0~--0~------2-2-(2)^---3-----3-----------0-2/3-3-3-3-3-3-------|
|-1-1-2---1-1-(1)1-0-----2-2~--2~----0-2-2-(2)^-----2/4-4-2-0-------0-3/4-4-4-4-4-4-2p0---|
|-2-2-2---2-2-(2)2-0---1-------1~----0-2----------------------2-(2)---------------------2-|
|-2-2---0-2-2-(2)2-0-2-2-------------0-0--------------------------------------------------|
|-0-0---0-0-0-(0)0-0---------2---2-2-----------------------------0------------------------|

|---------------0---------|
|---------------0-----3-3-|
|---------------0-2/4-4-4-|
|-------------------------|
|-----0-1-2-(2)-----------|
|-0-3---------------------|

Outro Guitar Solo(3:10)
|-------------------0-0-0-----0-0-0-0-0-0-0-0-0-0-0-|
|-3-3-3-3-3-3-3-3-3-3-3-3-3/5-5-5-5-5-5-5-5-5-5-5-5-|
|-4-4-4-4-4-4-4-4-4-4-4-4-4/6-6-6-6-6-6-6-6-6-6-6-6-|
|---------------------------------------------------|
|---------------------------------------------------|
|---------------------------------------------------|

|-----0--0--0--0--0--0--0--0--0--0--0--------0--0--0--0--0--0--0--0--0--0--0--------------------14-----14-12-------|
|-/12-12-12-12-12-12-12-12-12-12-12-12-12/15-15-15-15-15-15-15-15-15-15-15-15----12----12----12-14-14^-14-12----12-|
|-/13-13-13-13-13-13-13-13-13-13-13-13-13/16-16-16-16-16-16-16-16-16-16-16-16-14-12----12----12-14-14^-14-12----12-|
|-----------------------------------------------------------------------------------14----14-----------------14----|
|------------------------------------------------------------------------------------------------------------------|
|------------------------------------------------------------------------------------------------------------------|

|----12-12-15^-(15)15^-15^-15^-15~-12--------------------------12----------------------12-12-12-----12-12h14(14)13p12--------------|
|----12-------------------------------15-12--------------------12----------------------12----12-15^-12-12-------12----15^-12-------|
|-14^---------------------------------------14^(14)12----12-14^---12~12-------------14^--------------------------------------14-12-|
|-----------------------------------------------------14-------------12-14p12----12------------------------------------------------|
|-----------------------------------------------------------------------------14---------------------------------------------------|
|----------------------------------------------------------------------------------------------------------------------------------|

|----12-12------------------------------3^-0----0----------0---------------------------|
|----12----15-15-----------------------------3^-0----------0-7-8-(8)~------------------|
|-14^---------14^-14(14)12------------------------2^-0-1---0-6-7-(7)~------------------|
|--------------------------14-12~-14\--------------------2---x-x-(-)~------------------|
|------------------------------------------------------------6-7-(7)~------------------|
|-------------------------------------0-------------------------------0~~~~~~w/bar---0-|
comments
print report bad tab
3 comments total.
0 reply
punk-man12 wrote on December 7 2006, 03:42 pm

Amazing, your a superhuman.

0 reply
ajpisarski@msn wrote on December 3 2007, 12:18 pm

you gotta be crazy! it must have taken you hours to tab that you did it perfect though

-1 reply
Frito333 wrote on June 1 2008, 01:30 pm

THIS IS ALL COMPLETELY WRONG.possibly.it's too hard.there are way easier ways to play it.

I want to post or [tab]
guest
You may want to rate the tab now too:
select rating
Please do not post tabs as comments. Select "correction" instead!