Oops, an error
Loading. Please wait.
ver1
ver1

Whole song

More versions @911Tabs.com
6,109 views 12 this week
1 commentread comment
1 2 3 4 5
excellent!
x 2
add to favorites launch autoscroll
font size
0
reset
Autoscroll
+/-
esc
set tempo
stop
Contributor
Tuning
D# G# C# F# A# D#
WARNING: You are trying to view
                                    content from Ultimate-Guitar.com
                                    in an unauthorized application,
                                    which is prohibited.

                                    Please use an official Ultimate
                                    Guitar Tabs application for iPhone,
                                    iPad or Android to access legitimate
                                    chords, guitar, bass, and drum tabs
                                    from Ultimate-Guitar.com database.

                                    Type "ultimate guitar tabs" in Apple
                                    App Store's or Android Market's
                                    search to find the application.
#----------------------------------PLEASE NOTE---------------------------------#
#This file is the author's own work and represents their interpretation of the #
#song. You may only use this file for private study, scholarship, or research. #
#------------------------------------------------------------------------------#

CHANGE IT
As recorded by Stevie Ray Vaughan and Double Trouble
(From the 1985 Album SOUL TO SOUL)

Transcribed by guitargod175
        

Words and Music by Doyle Bramhall

Gtr I (Eb Ab Db Gb Bb Eb) - 'SRV - rhythm guitar'
Gtr II (Eb Ab Db Gb Bb Eb) - 'SRV - Lead Guitar'

 Intro
  Moderate Shuffle Q=112(8=s8)
  Am                        F7
 4/4
  Gtr II
                ~~
  E  E     E E  Q    E  E   E     +E  +Q    +E        +E     Q
|---10b12-10-8------------|-8b10==(8)r(8)---(8)b10====(8)r---x--|
|--------------10---10-10-|----------------------------------x--|
|-------------------------|-------------------------------------|
|-------------------------|-------------------------------------|
|-------------------------|-------------------------------------|
|-------------------------|-------------------------------------|
|
| Gtr I
|                                            |------3------|
| E  E     E E  E E  E  E   E      E   E  E  E      E      E Q
|-------------------------|-------------------------------------|
|-------------------------|-------------------------------------|
|-2--2-----5-5--2-2--5--5-|-------------------------------------|
|-2--2-----2-2--2-2--2--2-|------------3--3---------3--------3--|
|-0--0-----3-3--0-0--3--3-|-------------------------3--------3--|
|-------------------------|-1------1---------1-------------1----|


  Am                         F7
                       ~~                            ~~~~~~~~~~
       |3-|                  |--3--|    |--3---|     |-3--|
  E  E E  Q       E E  Q     E E   E   +E  E   E    +E  E E Q
|------8-10b12---10-8------|-----------------------------------||
|---10----------------10---|-8-5-------------------------------||
|--------------------------|-------7b9r(7)p5h==7b9==(7)-7-7-7r-||
|--------------------------|-----------------------------------||
|--------------------------|-----------------------------------||
|--------------------------|-----------------------------------||
|
|                                                    |-3--|
| E  E E       E  E E  E E   E   E      E    E       E  E E Q
|--------------------------|-----------------------------------||
|--------------------------|-----------------------------------||
|-2--2-5-------5--2-2--5-5-|-----------------------------------||
|-2--2-2-------2--2-2--2-2-|------------3----3----------3---3--||
|-0--0-3-------3--0-0--3-3-|----------------------------3---3--||
|--------------------------|-1---1-------------------1----1----||


   Verse 1 & 2
    Am                F7                Am
    Gtr I
    E E E E E E E E   E E E E E E E E   E E E E E E E E
||------------------|-----------------|-----------------|
||o-----------------|-----------------|-----------------|
||------2-2-----2-2-|-----2-2-----2-2-|---2-2-----2-2---|
||--2-2-2-2-2-2-2-2-|-1-1-1-1-----1-1-|-2-2-2-2-2-2-2---|
||o-0-0-3-3-0-0-3-3-|-x-x-------------|-0-3-3-0-0-0-3---|
||------------------|-1-1-----1-1-----|---------------0-|


  F7                  Am                G7
                                                      |-3-|
  E E E E E  E  E E   E E E E E E E E   E E a E E E E E E E
|-------------------|-----------------|----------------------|
|-------------------|-----------------|----------------------|
|-----2-2---(2)-2---|---2-2-2---2-2-2-|----------------------|
|-1-1-1-1-1--1--1-1-|---2-2-2-2-2-2-2-|-----3h5-5-----3h5-5--|
|-x-x-----x--x------|-0-0-3-3-0-0-0-0-|----------------------|
|-1-1-----1--1------|-----------------|-3-3-------3-3--------|
                      H       E E E E


  F7                  Am
  E E a E E E E E E   E E E E E E E E   E E E E E E E E
|-------------------|-----------------|------------------||
|-------------------|-----------------|-----------------o||
|-------------------|-2-2-2-2-2-2-2-2-|-2-2-2-2-2-2-2-2--||
|-----1h3-3-----3-3-|-2-2-2-2-2-2-2-2-|-2-2-2-2-2-2-2-2--||
|-------------------|-0-0-3-3-0-0-3-3-|-0-0-3-3-0-0-3-3-o||
|-1-1-------1-1-----|-----------------|------------------||


   Chorus
    C                                                   Bb
        |--3--|     |--3--|       |--3--|     |--3--|               |-3-|
    E E E  E  E E E E  E  E   E E E  E  E E E E  E  E   E E E E E E E E E
||--------------------------|-------------------------|--------------------|
||o-------------------------|-------------------------|--------------------|
||------5-----5-----5-----5-|-----5-----5-----5-----5-|-----3-------3---3--|
||--------------------------|-------------------------|--------------------|
||o-3-3---(3)---3-3---(3)---|-3-3---(3)---3-3---(3)---|-1-1---1-1-1---1----|
||--------------------------|-------------------------|--------------------|


                      F7
      |-3-|     |-3-|                         |-3-| |-3-|
  E E E E E E E E E E   E E E E E E E E   E E E E E E E E E   E
|---------------------|-----------------|--------------------------|
|---------------------|-----------------|--------------------------|
|-----3---3-----3---3-|-----------------|--------------------------|
|---------------------|-----3-3-----1-3-|-----3---1---1-3-1p0-3-0--|
|-1-1---1---1-1---1---|-----------------|-------3-------0----------|
|---------------------|-1-1-----1-1-----|-1-1----------------------|
                                          Q   Q     Q   E E E   E
                                                    |-3-| |--3--|


                   1.                     2.
  Am
  Gtr II
  W                 W                     H       E  E  +Q
|-----------------|--------------------||-----------20-(20)\---||
|-----------------|-------------------o||-----------20-(20)\---||
|-----------------|--------------------||-----------19-(19)\---||
|-----------------|--------------------||----------------------||
|-----------------|-------------------o||----------------------||
|-----------------|--------------------||----------------------||
|
| Gtr I
|                               |-3-|
| E E E E E E E E   E E E E E E E E E     E E E E E  E   E   E
|-----------------|--------------------||----------------------||
|-----------------|-------------------o||----------------------||
|-2-2-2-2-2-2-2-2-|-2-2---2---------2--||-2-2-2-2-2--2---2---2-||
|-2-2-2-2-2-2-2-2-|-2-2-5-2-2-2-5-2-2--||-2-2-2-2-2--2---2---2-||
|-0-0-3-3-0-0-3-3-|-0-0-3-0-0-0-3-0---o||-0-0-3-3-0--0---3---3-||
|-----------------|--------------------||----------------------||


 Guitar Solo
  Am                              F7+9
  Gtr II
                                          ~~
                                  |3-|
  Q     Q       Q.         +E     E  Q    E E     +Q     Q
|------10b12---10b12======(10)r-|-8---------8b10==(8)r-------|
|-------------------------------|---10---10------------------|
|-x/----------------------------|----------------------------|
|-x/----------------------------|----------------------------|
|-x/----------------------------|----------------------------|
|-------------------------------|----------------------------|
|
| Gtr I
| E  E  E    E  E     E E   E     E    E  E E      E   E E E
|-------------------------------|---------4-4------------4-4-|
|-------------------------------|---------4-4------------4-4-|
|-------2----2----------2---2---|---------2-2------------2-2-|
|-2--2--2----2--2-----2-2---2---|----------------------------|
|-0--0--3----3--0-----0-3---3---|----------------------------|
|-------------------------------|-1----1-----------1---1-----|


    Am                            F7+9
                                    ~                     ~~~~~~~~~~
                                  |3|   |--3--|    |--3---|
  E  E E  E  E     E     Q        E Q   E E   E   +E  E   E    +Q
|------8-10-10b11-10pb12-8b10---|-8-8---------------------------------|
|---10--------------------------|-------8-5---------------------------|
|-------------------------------|-------------7b9r(7)p5---7b9==(7)r---|
|-------------------------------|-------------------------------------|
|-------------------------------|-------------------------------------|
|-------------------------------|-------------------------------------|
|
| E  E E  E  E     E     E    E   E   E E   E      E    E       E   E
|-------------------------------|-------4---4-------------------4---4-|
|-------------------------------|-------4---4-------------------4---4-|
|------2--2--------------2----2-|-------2---2-------------------2---2-|
|-2--2-2--2--2-----2-----2----2-|-------------------------------------|
|-0--0-3--3--0-----0-----3----3-|-------------------------------------|
|-------------------------------|-1---1------------1----1-------------|


  Am                                       G
                                              ~~~~~~~~~~   ~~~~~~~~~~~~
       |-----3------|                      |3-|         |3-|
  E  E E  E        +E    Q        +Q       E  Q    E  E E  Q    E   E
|------8-10b12====(10)r-10b12====(10)r---|-8------------8--------------|
|---10-----------------------------------|---10---10-10---10---10--10--|
|----------------------------------------|-----------------------------|
|----------------------------------------|-----------------------------|
|----------------------------------------|-----------------------------|
|----------------------------------------|-----------------------------|
|
| E  E E        E        E     E   E   E   E    E  E  E E    E  E   E
|----------------------------------------|-----------------------------|
|----------------------------------------|-----------------------------|
|------2--------2------------------2---2-|---------------------(5)-(5)-|
|-2--2-2--------2--------2-----2---2---2-|------------5---------5---5--|
|-0--0-3--------3--------0-----0---3---3-|---------5---------5--5---5--|
|----------------------------------------|-3----3-------3----3---------|


  F7+9                               Am
                         ~~~~~
  |-----3------|
  E  E        +E    E E  E  E E  E    E      +E   Q       E      +E   Q
|-8-10b12====(10)r-10-8-------8-10-|-10b12==(10)r-8b10---10b12==(10)r-8b10---|
|-----------------------10-10------|-----------------------------------------|
|----------------------------------|-----------------------------------------|
|----------------------------------|-----------------------------------------|
|----------------------------------|-----------------------------------------|
|----------------------------------|-----------------------------------------|
|
| E        E        q    E  E E  E    E       E   E    E  E       E   E    E
|-------------------4--------------|-----------------------------------------|
|-------------------4--------------|-----------------------------------------|
|-------------------2--------------|--------------2----2--------------2----2-|
|-----------------------------1--3-|--2-------2---2----2--2-------2---2----2-|
|----------------------------------|--0-------0---3----3--0-------0---3----3-|
|-1--------1-------------1--1------|-----------------------------------------|


                    ~~               ~~~~~
                                                   |---3---|
   Q      E.     S  Q   E  E        +H.            E  E    E
|-10b12---8b10---8------8-10b12==|=(10)r-----------8s10------|
|------------------10------------|------------------------10-|
|--------------------------------|---------------------------|
|--------------------------------|---------------------------|
|--------------------------------|---------------------------|
|--------------------------------|---------------------------|
|
|  E    E E    E    E E E  E         E   E E E E E E    E
|--------------------------------|---------------------------|
|--------------------------------|---------------------------|
|---------2----2--------2--2-----|---------2-2-----2----2----|
|--2----2-2----2----2-2-2--2-----|---2---2-2-2-2-2-2----2----|
|--0----0-3----3----0-0-3--3-----|---0---0-3-3-0-0-3----3----|
|--------------------------------|---------------------------|


  F7+9                       Am
   ~~     ~~                                             ~~~~~
       |3-|                       |-----3------|
   Q   E  Q    E  E E +E     E  E E  E        +E    E E  E  E
|-10---8------------8-(8)/-|------8-10b12====(10)r-10-8-------|
|--------10---10-10--------|-x-10-----------------------10-10-|
|--------------------------|-x--------------------------------|
|--------------------------|----------------------------------|
|--------------------------|----------------------------------|
|--------------------------|----------------------------------|
|
|  E E E    E  E  E E  E     E  E E        E        E E  E  E
|------4----4-------4--4---|----------------------------------|
|------4----4-------4--4---|----------------------------------|
|------2----2-------2--2---|------2--------2-------------2--2-|
|--------------------------|-2--2-2--------2--------2-2--2--2-|
|--------------------------|-0--0-3--------3--------0-0--3--3-|
|--1-1---------1--1--------|----------------------------------|


  F7+9
  |3-|
  E  Q       +E  E  E      +E   +E       +E
|-8-10b12r==(10)-8-10b12==(10)r(10)b12==(10)r-|
|------------------10b12==(10)r(10)b12==(10)r-|
|---------------------------------------------|
|---------------------------------------------|
|---------------------------------------------|
|---------------------------------------------|
|
| E       E   E  E  E       E    E        E
|-------------4-----4-------4----4--------4---|
|-------------4-----4-------4----4--------4---|
|-------------2-----2-------2----2--------2---|
|----------------3----------------------------|
|---------------------------------------------|
|-1-------1-----------------------------------|


  Am                                            G
                                                                    ~~
             |----3----|                                         |3-|   |----3----|
   Q        +E   +E    E     +E  +E   Q          +E   +E   Q     E  Q   E E S    +S
|-10b12====(10)r(10)---8b10==(8)r(8)-10b12====|=(10)-(10)r-8b10--8---------------------|
|-10b12====(10)r(10)---8b10==(8)r(8)-10b12====|=(10)-(10)r---------10---8-5------------|
|---------------------------------------------|-----------------------------7b9==(7)r==|
|---------------------------------------------|----------------------------------------|
|---------------------------------------------|----------------------------------------|
|---------------------------------------------|----------------------------------------|
|
|  E     E   E       E        E   E   E     E     E    E   Q     E    E Q
|---------------------------------------------|------------3------------3--------------|
|---------------------------------------------|------------3------------3--------------|
|------------2-------2----------------2-----2-|----------------------------------------|
|--2-----2---2-------2--------2---2---2-----2-|----------------------------------------|
|--0-----0---3-------3--------0---0---3-----3-|----------------------------------------|
|---------------------------------------------|---3----3---------3----3----------------|


  F7
                ~~~~
   |--3---|
  +E  E   E    +H         E E
|-------------------------------|
|-------------------------8-----|
|-(7)p5h==7b9==(7)r---------7b9r|
|-------------------------------|
|-------------------------------|
|-------------------------------|
|
|  E    E       E   E E E E E
|-------------------------------|
|-------------------------------|
|-------------------------------|
|---------------2---3-----3-3---|
|-------------------------3-3---|
|--1----1---------------1-------|


  Am
   |--3---|     |---3----|     |--3--|       |--3--|
  +E  E   E    +E  +E    E E E E E   E   E E E E   E    H
|--------------------------------------|---------------------------||
|--------------------------------------|---------------------------||
|-(7)p5---7b9==(7)r(7)p==5-------------|----------------5tr7-------||
|--------------------------7-7-5-------|-----------5tr7-5tr7-------||
|--------------------------------7---6-|-5---5---------------------||
|--------------------------------------|---8---8-------------------||
|
|  E    E       E      E   E E E   E     E E E   E      E    E E E
|--------------------------------------|---------------------------||
|--------------------------------------|---------------------------||
|---------------2------2-------2---2---|-----2---2-------------2-2-||
|--2----2-------2------2---2-2-2---2---|-2-2-2---2------2----2-2-2-||
|--0----0-------3------3---0-0-3---3---|-0-0-3---3------0----0-3-3-||
|--------------------------------------|---------------------------||


 Chorus
  C                                                   Bb
      |--3--|     |--3--|       |--3--|     |--3--|               |-3-|
  E E E  E  E E E E  E  E   E E E  E  E E E E  E  E   E E E E E E E E E
|-------------------------|-------------------------|-------------------|
|-------------------------|-------------------------|-------------------|
|-----5-----5-----5-----5-|-----5-----5-----5-----5-|-----3-------3---3-|
|-------------------------|-------------------------|-------------------|
|-3-3---(3)---3-3---(3)---|-3-3---(3)---3-3---(3)---|-1-1---1-1-1---1---|
|-------------------------|-------------------------|-------------------|


                        F7
      |-3-|     |-3-|                         |-3-| |-3-|
  E E E E E E E E E E   E E E E E E E E   E E E E E E E E E   E
|---------------------|-----------------|--------------------------|
|---------------------|-----------------|--------------------------|
|-----3---3-----3---3-|-----------------|--------------------------|
|---------------------|-----3-3-----1-3-|-----3---1---1-3-1p0-3-0--|
|-1-1---1---1-1---1---|-----------------|-------3-------0----------|
|---------------------|-1-1-----1-1-----|-1-1----------------------|
                                          Q   Q     Q   E E E   E
                                                    |-3-| |--3--|


  Am
                                |-3-|
  E E E E E E E E   E E E E E E E E E   E E E E E E E E
|-----------------|-------------------|-----------------||
|-----------------|-------------------|-----------------||
|-2-2-2-2-2-2-2-2-|-2-2---2---------2-|-2-2-2-2-2-2-2-2-||
|-2-2-2-2-2-2-2-2-|-2-2-5-2-2-2-5-2-2-|-2-2-2-2-2-2-2-2-||
|-0-0-3-3-0-0-3-3-|-0-0-3-0-0-0-3-0---|-0-0-3-3-0-0-3-3-||
|-----------------|-------------------|-----------------||


 Verse 3
                    F7
  Gtr I
                        |-3-|     |-3-|
  E E E E E E E E   E E E E E E E E E E
|-----------------|---------------------|
|-----------------|---------------------|
|-----2-2-----2-2-|---------------------|
|-2-2-2-2-2-2-2-2-|-----1s3-3-----1s3-3-|
|-0-0-3-3-0-0-3-3-|---------------------|
|-----------------|-1-1-------1-1-------|


  Am                F7
                        |-3-|     |-3-|
  E E E E E E E E   E E E E E E E E E E
|-----------------|---------------------|
|-----------------|---------------------|
|-----2-2-----2-2-|---------------------|
|-2-2-2-2-2-2-2-2-|-----1s3-3-----1s3-3-|
|-0-0-3-3-0-0-3-3-|---------------------|
|-----------------|-1-1-------1-1-------|


  Am                G7                    F7                Am
                                  |-3-|
  E E E E E E E E   E E a E E E E E E E   E E E E E E E E   E E E E E E E E
|-----------------|---------------------|-----------------|-------------------|
|-----------------|---------------------|-----------------|-------------------|
|-----2-2-----2-2-|---------------------|-----------------|-----2-2-----2-2---|
|-2-2-2-2-2-2-2-2-|-----3h5-5-----3h5-5-|-----3-3-----3-3-|-2-2-2-2-2-2-2-2---|
|-0-0-3-3-0-0-3-3-|---------------------|-----------------|-0-0-3-3-0-0-3-3---|
|-----------------|-3-3-------3-3-------|-1-1-----1-1-----|-------------------|


                               Out-Chorus
  Am
  Gtr II
      <
                                          ~~~~~~
                                    |--3--|       |--3--|
  Q   H          E      +E      E E E E   E +Q    E E   E
|-----8b10-------8b8.5==(8)r-||-5---5-8---5-(5)--------------|
|----------------------------||---5---------------8-5--------|
|----------------------------||-------------------------7b9==|
|----------------------------||------------------------------|
|----------------------------||------------------------------|
|----------------------------||------------------------------|
|
| Gtr I
| E E E    E E E E       E      E E E   E    E  E E   E
|----------------------------||------------------------------|
|----------------------------||------------------------------|
|-----2----2-----2-------2---||-----2---2---------2---2------|
|-2-2-2----2-2-2-2-------2---||-2-2-2---2----2--2-2---2------|
|-0-0-3----3-0-0-3-------3---||-0-0-3---3----0--0-3---3------|
|----------------------------||------------------------------|


  F7                    Am
  +Q      Q   H         H       E E  E E
|---------------------|----------------8-|
|---------------------|-------------10---|
|-(7)r\---------------|-----------9------|
|---------------------|------------------|
|---------------------|------------------|
|---------------------|------------------|
|
|  E    E E E E E E E   E E E E E E  E E
|---------------------|------------------|
|---------------------|------------------|
|---------------------|-----2-2------2-2-|
|---------3-3-----3-3-|-2-2-2-2-2-2--2-2-|
|---------------------|-0-0-3-3-0-0--3-3-|
|--1----1-----1-1-----|------------------|


  F7+9                       Am
   ~~~~~~~
   Q    E E     +Q     Q     H       Q    Q
|---------8b10==(8)r-------|-------------10b12---|
|-10---10------------------|---------------------|
|--------------------------|---------------------|
|--------------------------|---------------------|
|--------------------------|---------------------|
|--------------------------|---------------------|
|
|  E E  E E      E   E E E   E E E E E E  E    E
|-------4-4------------4-4-|---------------------|
|-------4-4------------4-4-|---------------------|
|-------2-2------------2-2-|-----2-2------2----2-|
|--------------------------|-2-2-2-2-2-2--2----2-|
|--------------------------|-0-0-3-3-0-0--3----3-|
|--1-1-----------1---1-----|---------------------|


  F7                      Am
     ~~
  |3-|
  E  Q    E  E Q    Q     H       Q    Q
|-8---------17sx\-------|-------------10b12====|
|---10---10-17sx\-------|----------------------|
|-----------16sx\-------|----------------------|
|-----------------------|----------------------|
|-----------------------|----------------------|
|-----------------------|----------------------|
|
| E    E  E  E E  E E E   E E E E E E  E     E
|-----------------------|----------------------|
|-----------------------|----------------------|
|-----------------------|-----2-2------2-----2-|
|---------3--3------3-3-|-2-2-2-2-2-2--2-----2-|
|-----------------------|-0-0-3-3-0-0--3-----3-|
|-1----1-------1--1-----|----------------------|


  F7                             Am
                       |--3--|           |-----3-----|
   +Q     Q       Q    E E   E   H       Q    a  Q   Q
|-(10)r---8b10-----------------|-------------15s17s==8b10====|
|----------------10---10p8-----|-----------------------------|
|----------------------------9-|-----------------------------|
|------------------------------|-----------------------------|
|------------------------------|-----------------------------|
|------------------------------|-----------------------------|
|
|   E   E E    E  E E  E   E     E E E E E E       E       E
|------------------------------|-----------------------------|
|------------------------------|-----------------------------|
|------------------------------|-----2-2-----------2-------2-|
|---------3----3-------3---3---|-2-2-2-2-2-2-------2-------2-|
|------------------------------|-0-0-3-3-0-0-------3-------3-|
|---1---1---------1-1----------|-----------------------------|


  F7+9                     Am
                 ~
         |--3--|
  +E   E E E   E Q   Q     H       Q   Q
|-(8)r-8-5-----8-5-------|----------------------|
|----------5-------------|----------------------|
|------------------------|-------------7b9======|
|------------------------|----------------------|
|------------------------|----------------------|
|------------------------|----------------------|
|
|  E   E E   E   E E E E   E E E E E E E    E
|--------4---4-------4-4-|----------------------|
|--------4---4-------4-4-|----------------------|
|--------2---2-------2-2-|-----2-2-----2----2---|
|------------------------|-2-2-2-2-2-2-2----2---|
|------------------------|-0-0-3-3-0-0-3----3---|
|--1---1---------1-1-----|----------------------|


  F7+9                       Am
         ~~~~~~~~~~~~~~~~                           ~~~
                                              |--3--|
  +Q     E E +E    E   E E   Q   E    +E  E E E E   E
|--------5-5-(5)---5---5-5-|-----8b10r(8)-5---5-8---5-|
|--------------------------|----------------5---------|
|-(7)r---------------------|--------------------------|
|--------------------------|--------------------------|
|--------------------------|--------------------------|
|--------------------------|--------------------------|
|
|             |--3---|
|  E   E E E  E  E   E E E   E E E     E  E E E   E
|--------4-4-----4-----4-4-|--------------------------|
|--------4-4-----4-----4-4-|--------------------------|
|--------2-2-----2-----2-2-|-----2-----2------2---2---|
|--------------------------|-2-2-2-----2--2-2-2---2---|
|--------------------------|-0-0-3-----3--0-0-3---3---|
|--1---1------1------1-----|--------------------------|


  F7+9                  Am
 ~~~~~                    ~~~~~~~~~~~~~~~~~~~
  +Q    E  E  H         E E  E  E  +E   E  E E
|-(5)-----17\---------|----------------------8b10==|
|---------------------|-----10-10-(10)-10-10-------|
|---------------------|---9------------------------|
|---------------------|----------------------------|
|---------------------|----------------------------|
|---------------------|----------------------------|
|
|  E  E E  E  E E E E   E E  E  E   E   E  E E
|-------4--4------4-4-|----------------------------|
|-------4--4------4-4-|----------------------------|
|-------2--2------2-2-|------2--2----------2-2-----|
|---------------------|-2-2--2--2---2---2--2-2-----|
|---------------------|-0-0--3--3---0---0--3-3-----|
|--1--1-------1-1-----|----------------------------|


  F7+9                 Am
                                              |--3---|
  +Q     Q   H         Q    E    E     +Q     E  E   E
|-(8)r---------------|-----10b12-8b10==(8)r---8------8b10==|
|--------------------|--------------------------10---------|
|--------------------|-------------------------------------|
|--------------------|-------------------------------------|
|--------------------|-------------------------------------|
|--------------------|-------------------------------------|
|
|  E   E E E E E E E   E E  E    E      E   E E    E
|--------4-4-----4-4-|-------------------------------------|
|--------4-4-----4-4-|-------------------------------------|
|--------2-2-----2-2-|------2----2------------2----2-------|
|--------------------|-2-2--2----2------2---2-2----2-------|
|--------------------|-0-0--3----3------0---0-3----3-------|
|--1---1-----1-1-----|-------------------------------------|


  F7+9               Am
                                         ~~
  Q    Q   H         Q   E  E     +E  E  Q
|-8r---------------|-------10b12r(10)-8--------|
|------------------|--------------------10-----|
|------------------|---------------------------|
|------------------|---------------------------|
|------------------|---------------------------|
|------------------|---------------------------|
|
| E  E E E E E E E   E E E  E      E  E  E E
|------4-4-----4-4-|---------------------------|
|------4-4-----4-4-|---------------------------|
|------2-2-----2-2-|-----2--2------------2-2---|
|------------------|-2-2-2--2------2--2--2-2---|
|------------------|-0-0-3--3------0--0--3-3---|
|-1--1-----1-1-----|---------------------------|


  F7+9                       Am
   ~~~~~~~                          ~~~~~~~~~~~~~~~~
   Q    E E     +Q     Q     Q   E  E  +q     E      +E
|---------8b10==(8)r-------|-------17-(17)---17b20==(17)r|
|-10---10------------------|-----------------------------|
|--------------------------|-----------------------------|
|--------------------------|-----------------------------|
|--------------------------|-----------------------------|
|--------------------------|-----------------------------|
|
|  E E  E E      E   E E E   E E E  E   E  E  E       E
|-------4-4------------4-4-|-----------------------------|
|-------4-4------------4-4-|-----------------------------|
|-------2-2------------2-2-|-----2--2---------2-------2--|
|--------------------------|-2-2-2--2---2--2--2-------2--|
|--------------------------|-0-0-3--3---0--0--3-------3--|
|--1-1-----------1---1-----|-----------------------------|


  F7+9                  Am
                        |--3--|           |--3--|
   +Q     Q   H         Q   S S E E +E  E E E   E
|-(17)\---------------|-------------------5-5---5-|
|---------------------|-------------------5-5---5-|
|---------------------|-----------------0-5-5---5-|
|---------------------|-----7-7-7-7-(7)-0---------|
|---------------------|---------------------------|
|---------------------|-----5-5-5-5-(5)-----------|
|
|   E   E E E E E E E   E E     E E  E  E E   E
|---------4-4-----4-4-|---------------------------|
|---------4-4-----4-4-|---------------------------|
|---------2-2-----2-2-|---------2-2-------2---2---|
|---------------------|-2-2-----2-2--2--2-2---2---|
|---------------------|-0-0-----3-3--0--0-3---3---|
|---1---1-----1-1-----|---------------------------|


  F7+9                   Am
                            ~~~~~~~
                         |3-|
  +Q     Q   H           E  Q    E E  E       E      E E
|-(5)\-----------------|-8---------8-10b10.5-10pb12r10-8-|
|-(5)\-----------------|---10---10-----------------------|
|-(5)\-----------------|---------------------------------|
|----------------------|---------------------------------|
|----------------------|---------------------------------|
|----------------------|---------------------------------|
|
|            |-3-|
|  E   E E E E E E E E   E    E  E E  E       E      E E
|--------4-4---4---4-4-|---------------------------------|
|--------4-4---4---4-4-|---------------------------------|
|--------2-2---2---2-2-|---------2-2-----------------2-2-|
|----------------------|-2----2--2-2--2-------2------2-2-|
|----------------------|-0----0--3-3--0-------0------3-3-|
|--1---1-----1---1-----|---------------------------------|


  F7+9
   H          Q       +Q
|-10b12-------8b10====(8)r----|
|-----------------------------|
|-----------------------------|
|-----------------------------|
|-----------------------------|
|-----------------------------|
|
|  E    E E E E     E  E   E
|---------4-4----------4---4--|
|---------4-4----------4---4--|
|---------2-2----------2---2--|
|-----------------------------|
|-----------------------------|
|--1----1-----1-----1---------|


  Am                             F7+9
     ~~~~~~~                                     ~~~~~~~~~~~~
  |3-|
  E  Q    E E     +E  +E   E E   E  E     +E  E  Q      E  E
|-8---------8b10==(8)-(8)r-----|---10b12r(10)-8--------------|
|---10---10------------------xs|=x--------------10-----10-10-|
|----------------------------xs|=x---------------------------|
|------------------------------|-----------------------------|
|------------------------------|-----------------------------|
|------------------------------|-----------------------------|
|
|                                                |-3-|
| E    E  E E      E   E   E E   E  E      E  E  E E E  E  E
|------------------------------|-----------4--4----4----4--4-|
|------------------------------|-----------4--4----4----4--4-|
|---------2-2--------------2-2-|-----------2--2----2----2--2-|
|-2----2--2-2------2---2---2-2-|-----------------------------|
|-0----0--3-3------0---0---3-3-|-----------------------------|
|------------------------------|-1--1------------1---1-------|


  Am                                    F7+9
                            ~~~~~~~                                  ~~~~~
                                        |3-|
  E  S S  E     +E     E S  S  +E   E   E  Q       +Q         +Q     Q
|-8-10p8-(8)b10r(8)b9----8------------|-8-10b12r==(10)b12====(10)r---8b10=====|
|---------8b10r=(8)b9-10---10-(10)-10-|---------------------------------------|
|-------------------------------------|---------------------------------------|
|-------------------------------------|---------------------------------------|
|-------------------------------------|---------------------------------------|
|-------------------------------------|---------------------------------------|
|
| E  E    E      E     E E      E   E   E       E   E      E   E   E E     E
|-------------------------------------|-------------4------4---------4-----4--|
|-------------------------------------|-------------4------4---------4-----4--|
|---------2------2--------------2---2-|-------------2------2---------2-----2--|
|-2--2----2------2-----2-2------2---2-|---------------------------------------|
|-0--0----3------3-----0-0------3---3-|---------------------------------------|
|-------------------------------------|-1-------1--------------1---1----------|


  Am                          G7
   ~~~~
  +H         S  E   S a E E   Q       +E  E     E E     E   E
|-(8)r-------8------8-------|---------------------------------------|
|--------------10-----------|---------------------------------------|
|---------------------9s7p5-|-7b9r====(7)p5b5.5h7p5b5.5h7p==5b5.5---|
|---------------------------|---------------------------------------|
|---------------------------|---------------------------------------|
|---------------------------|---------------------------------------|
|
|                                                       |----3----|
|  E   E E E E    E     E E   E   E a  E  E     E E     E E       E
|---------------------------|---------------------------------------|
|---------------------------|---------------------------------------|
|--------2-2------------2-2-|---------------------------------------|
|--2---2-2-2-2----2-----2-2-|-------3h=5--5-------------3h5-------5-|
|--0---0-3-3-0----0-----3-3-|---------------------------------------|
|---------------------------|-3---3-------------3-3-----------------|


  F7                N.C.
                                    ~
  Q     +E  E     E E       E   E   W
|---------------------------------|------*|
|---------------------------------|------*|
|-7b9r==(7)p5b5.5h7p5b5.5---------|------*|
|---------------------------7---5-|-7----*|
|---------------------------------|------*|
|---------------------------------|------*|
|
|                 |-----3-----|
| E   E  E  E     Q       Q   Q     W
|---------------------------------|------*|
|---------------------------------|------*|
|---------------------------------|------*|
|--------3--3---------------------|------*|
|---------------------------------|------*|
|-1---1-----------1-------3---4---|-5----*|



Duration Legend
---------------
W - whole; H - half; Q - quarter; E - 8th; S - 16th; T - 32nd; X - 64th; a - acciaccatura
+ - note tied to previous; . - note dotted; .. - note double dotted
Uncapitalized letters represent notes that are staccato (1/2 duration)
Irregular groupings are notated above the duration line
Duration letters will always appear directly above the note/fret number it represents the
duration for.  Duration letters with no fret number below them represent rests.  Multi-
bar rests are notated in the form Wxn, where n is the number of bars to rest for.  Low
melody durations appear below the staff

Tablature Legend
----------------
 h   - hammer-on
 p   - pull-off
 b   - bend
 pb  - pre-bend
 r   - bend release (if no number after the r, then release immediately)
 /\  - slide into or out of (from/to "nowhere")
 s   - legato slide
 S   - shift slide
 - natural harmonic
[n]  - artificial harmonic
n(n) - tapped harmonic
 ~   - vibrato
 tr  - trill
 T   - tap
 TP  - trem. picking
 PM  - palm muting
\n/  - tremolo bar dip; n = amount to dip
 \n  - tremolo bar down
 n/  - tremolo bar up
/n\  - tremolo bar inverted dip
 =   - hold bend; also acts as connecting device for hammers/pulls
 <> - volume swell (louder/softer)
 x   - on rhythm slash represents muted slash
 o   - on rhythm slash represents single note slash

Misc Legend
-----------
 |  - bar
||  - double bar
||o - repeat start
o|| - repeat end
*|  - double bar (ending)
 :  - bar (freetime)
 $  - Segno
 &  - Coda
Tempo markers -  = BPM(8/16=s8/s16), where s8 = swing 8ths, s16 = swing 16ths

comments
We did not receive enough feedback on this tab! Please rate:
print report bad tab
1 2 3 4 5
1 comment total.
+1 reply
riprandyrhoads wrote on September 24 2009, 09:24 am

friggin awesome tab man.

I want to post or [tab]
guest
You may want to rate the tab now too:
select rating
Please do not post tabs as comments. Select "correction" instead!