Oops, an error
Loading. Please wait.
ver2
ver2

Whole song

Interactive

More versions @911Tabs.com
901 views 1 this week
no commentswrite comment
1 2 3 4 5
please rate
Autoscroll
+/-
esc
set tempo
stop
Contributor
Hey! There's an official Ultimate Guitar app which is ideal
for learning songs when you're away from computer. Get the app
WARNING: You are trying to view
                                    content from Ultimate-Guitar.com
                                    in an unauthorized application,
                                    which is prohibited.

                                    Please use an official Ultimate
                                    Guitar Tabs application for iPhone,
                                    iPad or Android to access legitimate
                                    chords, guitar, bass, and drum tabs
                                    from Ultimate-Guitar.com database.

                                    Type "ultimate guitar tabs" in Apple
                                    App Store's or Android Market's
                                    search to find the application.
      E  E  E  E  E  E  E  E     E  E  E  E  E  E  E  Q     
D#||--------------------------|----------------------------|
A#||--------------------------|----------------------------|
F#||--2--2--5--5--2--2--5--5--|----------------------------|
C#||--2--2--2--2--2--2--2--2--|--------3--3-----3-----3----|
G#||--0--0--3--3--0--0--3--3--|-----------------3-----3----|
D#||--------------------------|--1--1--------1-----1-------|


                                         |--3--|        
  E  E  E  E  E  E  E  E     E  E  E  E  E  E  E  Q     
--------------------------|----------------------------|
--------------------------|----------------------------|
--2--2--5--5--2--2--5--5--|----------------------------|
--2--2--2--2--2--2--2--2--|--------3--3-----3-----3----|
--0--0--3--3--0--0--3--3--|-----------------3-----3----|
--------------------------|--1--1--------1-----1-------|


    E  E  E  E  E  E  E  E     E  E  E  E  E  E  E  E   
|---------------------------|--------------------------|
|---------------------------|--------------------------|
|*--------2--2--------2--2--|--------2--2--------2--2--|
|*--2--2--2--2--2--2--2--2--|--1--1--1--1--------1--1--|
|---0--0--3--3--0--0--3--3--|--x--x--------------------|
|---------------------------|--1--1--------1--1--------|


  E  E  E  E  E  E  E  E     E  E  E  E  E   E   E  E   
--------------------------|----------------------------|
--------------------------|----------------------------|
-----2--2--------2--2-----|--------2--2-----(2)--2-----|
--2--2--2--2--2--2--2-----|--1--1--1--1--1---1---1--1--|
--0--3--3--0--0--0--3-----|--x--x--------x---x---------|
-----------------------0--|--1--1--------1---1---------|


                                                 |---3--|   
  E  E  E  E  E  E  E  E     E  E    E  E  E  E  E   E  E   
--------------------------|--------------------------------|
--------------------------|--------------------------------|
-----2--2--2-----2--2--2--|--------------------------------|
-----2--2--2--2--2--2--2--|--------3g5--5--------3h--5--5--|
--0--0--3--3--0--0--0--0--|--------------------------------|
--------------------------|--3--3----------3--3------------|


  E  E    E  E  E  E  E  E     E  E  E  E  E  E  E  E   
----------------------------|--------------------------|
----------------------------|--------------------------|
----------------------------|--2--2--2--2--2--2--2--2--|
--------1g3--3--------3--3--|--2--2--2--2--2--2--2--2--|
----------------------------|--0--0--3--3--0--0--3--3--|
--1--1----------1--1--------|--------------------------|


                                      |---3---|        |---3---|   
  E  E  E  E  E  E  E  E        E  E  E   E   E  E  E  E   E   E   
---------------------------||-------------------------------------|
---------------------------||-------------------------------------|
--2--2--2--2--2--2--2--2--*||*--------5-------5--------5-------5--|
--2--2--2--2--2--2--2--2--*||*------------------------------------|
--0--0--3--3--0--0--3--3---||---3--3-----(3)-----3--3-----(3)-----|
---------------------------||-------------------------------------|


        |---3---|        |---3---|                       |--3--|   
  E  E  E   E   E  E  E  E   E   E     E  E  E  E  E  E  E  E  E   
------------------------------------|-----------------------------|
------------------------------------|-----------------------------|
--------5-------5--------5-------5--|--------3-----------3-----3--|
------------------------------------|-----------------------------|
--3--3-----(3)-----3--3-----(3)-----|--1--1-----1--1--1-----1-----|
------------------------------------|-----------------------------|


        |--3--|        |--3--|                              
  E  E  E  E  E  E  E  E  E  E     E  E  E  E  E  E  E  E   
--------------------------------|--------------------------|
--------------------------------|--------------------------|
--------3-----3--------3-----3--|--------------------------|
--------------------------------|--------3--3--------1--3--|
--1--1-----1-----1--1-----1-----|--------------------------|
--------------------------------|--1--1--------1--1--------|


        |--3--|  |--3--|  |-3| |3|                              
  E  E  E  E  E  E  E  E  E  S S E     E  E  E  E  E  E  E  E   
------------------------------------|--------------------------|
------------------------------------|--------------------------|
------------------------------------|--2--2--2--2--2--2--2--2--|
--------3-----1-----1--3--1--0-3-0--|--2--2--2--2--2--2--2--2--|
-----------3-----------0------------|--0--0--3--3--0--0--3--3--|
--1--1------------------------------|--------------------------|


                    |--3--|                                
  E  E  E  E  E  E  E  E  E       E  E  E  E  E  E  E  E   
------------------------------||--------------------------|
------------------------------||--------------------------|
--2--2-----2--------------2--*||--2--2--2--2--2--2--2--2--|
--2--2--5--2--2--2--5--2--2--*||--2--2--2--2--2--2--2--2--|
--0--0--3--0--0--0--3--0------||--0--0--3--3--0--0--3--3--|
------------------------------||--------------------------|


  E  E  E  E  E  E  E  E     E  E  E  E  E  E  E  E   
--------------------------|--------4--4--------4--4--|
--------------------------|--------4--4--------4--4--|
--------2--2--------2--2--|--------2--2--------2--2--|
--2--2--2--2--2--2--2--2--|--------------------------|
--0--0--3--3--0--0--3--3--|--------------------------|
--------------------------|--1--1--------1--1--------|


  E  E  E  E  E  E  E  E     E  E  E  E  E  E  E  E   
--------------------------|--------4--4--------4--4--|
--------------------------|--------4--4--------4--4--|
--------2--2--------2--2--|--------2--2--------2--2--|
--2--2--2--2--2--2--2--2--|--------------------------|
--0--0--3--3--0--0--3--3--|--------------------------|
--------------------------|--1--1--------1--1--------|


  E  E  E  E  E  E  E  E     E  E  E  E  E  E   E    E    
--------------------------|------------------------------|
--------------------------|------------------------------|
--------2--2--------2--2--|--------------------(5)--(5)--|
--2--2--2--2--2--2--2--2--|-----------5---------5----5---|
--0--0--3--3--0--0--3--3--|--------5--------5---5----5---|
--------------------------|--3--3--------3--3------------|


        >                                                                       
  E  E  Q    E  E  E  E     E  E  E  E  E  E  E  E     E  E  E  E  E  E  E  E   
--------4----------------|--------------------------|--------------------------|
--------4----------------|--------------------------|--------------------------|
--------2----------------|--------2--2--------2--2--|--------2--2--------2--2--|
-------------------1--3--|--2--2--2--2--2--2--2--2--|--2--2--2--2--2--2--2--2--|
-------------------------|--0--0--3--3--0--0--3--3--|--0--0--3--3--0--0--3--3--|
--1--1-------1--1--------|--------------------------|--------------------------|


  E  E  E  E  E  E  E  E     E  E  E  E  E  E  E  E   
--------------------------|--------4--4--------4--4--|
--------------------------|--------4--4--------4--4--|
--------2--2--------2--2--|--------2--2--------2--2--|
--2--2--2--2--2--2--2--2--|--------------------------|
--0--0--3--3--0--0--3--3--|--------------------------|
--------------------------|--1--1--------1--1--------|


  E  E  E  E  E  E  E  E     E  E  E  E  E  E  E  E   
--------------------------|--------4-----4--4--4--4--|
--------------------------|--------4-----4--4--4--4--|
--------2--2--------2--2--|--------2-----2--2--2--2--|
--2--2--2--2--2--2--2--2--|-----------3--------------|
--0--0--3--3--0--0--3--3--|--------------------------|
--------------------------|--1--1--------------------|


  E  E  E  E  E  E  E  E     E  E  Q    E  E  Q       E  E  E  E  E  E  E  E   
--------------------------|--------3----------3----|--------------------------|
--------------------------|--------3----------3----|--------------------------|
--------2--2--------2--2--|------------------------|--------------------------|
--2--2--2--2--2--2--2--2--|------------------------|--------2--3--------3--3--|
--0--0--3--3--0--0--3--3--|------------------------|--------------------3--3--|
--------------------------|--3--3-------3--3-------|--1--1-----------1--------|


  E  E  E  E  E  E  E  E     E  E  E  E  E  E  E  E     W                 
--------------------------|--------------------------|-------------------|
--------------------------|--------------------------|-------------------|
--------2--2--------2--2--|--------2--2--------2--2--|-------------------|
--2--2--2--2--2--2--2--2--|--2--2--2--2--2--2--2--2--|-------------------|
--0--0--3--3--0--0--3--3--|--0--0--3--3--0--0--3--3--|-------------------|
--------------------------|--------------------------|-------------------|


  W                   W                   W                   W                 
-------------------|-------------------|-------------------|-------------------|
-------------------|-------------------|-------------------|-------------------|
-------------------|-------------------|-------------------|-------------------|
-------------------|-------------------|-------------------|-------------------|
-------------------|-------------------|-------------------|-------------------|
-------------------|-------------------|-------------------|-------------------|


  W                   W                   W                   W                 
-------------------|-------------------|-------------------|-------------------|
-------------------|-------------------|-------------------|-------------------|
-------------------|-------------------|-------------------|-------------------|
-------------------|-------------------|-------------------|-------------------|
-------------------|-------------------|-------------------|-------------------|
-------------------|-------------------|-------------------|-------------------|


                                   |---3--|        |---3--|   
  E  E  E  E  E  E  E  E     E  E  E   E  E  E  E  E   E  E   
--------------------------|----------------------------------|
--------------------------|----------------------------------|
--------2--2--------2--2--|----------------------------------|
--2--2--2--2--2--2--2--2--|--------1s--3--3--------1s--3--3--|
--0--0--3--3--0--0--3--3--|----------------------------------|
--------------------------|--1--1------------1--1------------|


                                   |---3--|        |---3--|   
  E  E  E  E  E  E  E  E     E  E  E   E  E  E  E  E   E  E   
--------------------------|----------------------------------|
--------------------------|----------------------------------|
--------2--2--------2--2--|----------------------------------|
--2--2--2--2--2--2--2--2--|--------1s--3--3--------1s--3--3--|
--0--0--3--3--0--0--3--3--|----------------------------------|
--------------------------|--1--1------------1--1------------|


                                                 |---3--|   
  E  E  E  E  E  E  E  E     E  E    E  E  E  E  E   E  E   
--------------------------|--------------------------------|
--------------------------|--------------------------------|
--------2--2--------2--2--|--------------------------------|
--2--2--2--2--2--2--2--2--|--------3g5--5--------3h--5--5--|
--0--0--3--3--0--0--3--3--|--------------------------------|
--------------------------|--3--3----------3--3------------|


  E  E  E  E  E  E  E  E     E  E  E  E  E  E  E  E   
--------------------------|--------------------------|
--------------------------|--------------------------|
--------------------------|--------2--2--------2--2--|
--------3--3--------3--3--|--2--2--2--2--2--2--2--2--|
--------------------------|--0--0--3--3--0--0--3--3--|
--1--1--------1--1--------|--------------------------|


  E  E  E  E  E  E  E  E     E  E  E  E  E  E  E  E   
--------------------------|--------------------------|
--------------------------|--------------------------|
--------2--2--------2--2--|--------2--2--------2--2--|
--2--2--2--2--2--2--2--2--|--2--2--2--2--2--2--2--2--|
--0--0--3--3--0--0--3--3--|--0--0--3--3--0--0--3--3--|
--------------------------|--------------------------|


  E  E  E  E  E  E  E  E     E  E  E  E  E  E  E  E   
--------------------------|--------------------------|
--------------------------|--------------------------|
--------------------------|--------2--2--------2--2--|
--------3--3--------3--3--|--2--2--2--2--2--2--2--2--|
--------------------------|--0--0--3--3--0--0--3--3--|
--1--1--------1--1--------|--------------------------|


  E  E  E  E  E  E  E  E     E  E  E  E  E  E  E  E   
--------4--4--------4--4--|--------------------------|
--------4--4--------4--4--|--------------------------|
--------2--2--------2--2--|--------2--2--------2--2--|
--------------------------|--2--2--2--2--2--2--2--2--|
--------------------------|--0--0--3--3--0--0--3--3--|
--1--1--------1--1--------|--------------------------|


  E  E  E  E  E  E  E  E     E  E  E  E  E  E  E  E   
--------------------------|--------------------------|
--------------------------|--------------------------|
--------------------------|--------2--2--------2--2--|
--------3--3--------3--3--|--2--2--2--2--2--2--2--2--|
--------------------------|--0--0--3--3--0--0--3--3--|
--1--1--------1--1--------|--------------------------|


  E  E  E  E  E  E  E  E     E  E  E  E  E  E  E  E   
--------------------------|--------------------------|
--------------------------|--------------------------|
--------------------------|--------2--2--------2--2--|
--------3--3--------3--3--|--2--2--2--2--2--2--2--2--|
--------------------------|--0--0--3--3--0--0--3--3--|
--1--1--------1--1--------|--------------------------|


  E  E  E  E  E  E  E  E     E  E  E  E  E  E  E  E   
--------4--4--------4--4--|--------------------------|
--------4--4--------4--4--|--------------------------|
--------2--2--------2--2--|--------2--2--------2--2--|
--------------------------|--2--2--2--2--2--2--2--2--|
--------------------------|--0--0--3--3--0--0--3--3--|
--1--1--------1--1--------|--------------------------|


              |--3--|                                    
  E  E  E  E  E  E  E  E  E     E  E  E  E  E  E  E  E   
--------4--4-----4-----4--4--|--------------------------|
--------4--4-----4-----4--4--|--------------------------|
--------2--2-----2-----2--2--|--------2--2--------2--2--|
-----------------------------|--2--2--2--2--2--2--2--2--|
-----------------------------|--0--0--3--3--0--0--3--3--|
--1--1--------1-----1--------|--------------------------|


  E  E  E  E  E  E  E  E     E  E  E  E  E  E  E  E   
--------4--4--------4--4--|--------------------------|
--------4--4--------4--4--|--------------------------|
--------2--2--------2--2--|--------2--2--------2--2--|
--------------------------|--2--2--2--2--2--2--2--2--|
--------------------------|--0--0--3--3--0--0--3--3--|
--1--1--------1--1--------|--------------------------|


  E  E  E  E  E  E  E  E     E  E  E  E  E  E  E  E   
--------4--4--------4--4--|--------------------------|
--------4--4--------4--4--|--------------------------|
--------2--2--------2--2--|--------2--2--------2--2--|
--------------------------|--2--2--2--2--2--2--2--2--|
--------------------------|--0--0--3--3--0--0--3--3--|
--1--1--------1--1--------|--------------------------|


  E  E  E  E  E  E  E  E     E  E  E  E  E  E  E  E   
--------4--4--------4--4--|--------------------------|
--------4--4--------4--4--|--------------------------|
--------2--2--------2--2--|--------2--2--------2--2--|
--------------------------|--2--2--2--2--2--2--2--2--|
--------------------------|--0--0--3--3--0--0--3--3--|
--1--1--------1--1--------|--------------------------|


  E  E  E  E  E  E  E  E     E  E  E  E  E  E  E  E   
--------4--4--------4--4--|--------------------------|
--------4--4--------4--4--|--------------------------|
--------2--2--------2--2--|--------2--2--------2--2--|
--------------------------|--2--2--2--2--2--2--2--2--|
--------------------------|--0--0--3--3--0--0--3--3--|
--1--1--------1--1--------|--------------------------|


  E  E  E  E  E  E  E  E     E  E  E  E  E  E  E  E   
--------4--4--------4--4--|--------------------------|
--------4--4--------4--4--|--------------------------|
--------2--2--------2--2--|--------2--2--------2--2--|
--------------------------|--2--2--2--2--2--2--2--2--|
--------------------------|--0--0--3--3--0--0--3--3--|
--1--1--------1--1--------|--------------------------|


              |--3--|                                    
  E  E  E  E  E  E  E  E  E     E  E  E  E  E  E  E  E   
--------4--4-----4-----4--4--|--------------------------|
--------4--4-----4-----4--4--|--------------------------|
--------2--2-----2-----2--2--|--------2--2--------2--2--|
-----------------------------|--2--2--2--2--2--2--2--2--|
-----------------------------|--0--0--3--3--0--0--3--3--|
--1--1--------1-----1--------|--------------------------|


  E  E  E  E  E  E  E  E     E  E  E  E  E  E  E  E   
--------4--4--------4--4--|--------------------------|
--------4--4--------4--4--|--------------------------|
--------2--2--------2--2--|--------2--2--------2--2--|
--------------------------|--2--2--2--2--2--2--2--2--|
--------------------------|--0--0--3--3--0--0--3--3--|
--1--1--------1--1--------|--------------------------|


              |--3--|                                    
  E  E  E  E  E  E  E  E  E     E  E  E  E  E  E  E  E   
--------4--4-----4-----4--4--|--------------------------|
--------4--4-----4-----4--4--|--------------------------|
--------2--2-----2-----2--2--|--------2--2--------2--2--|
-----------------------------|--2--2--2--2--2--2--2--2--|
-----------------------------|--0--0--3--3--0--0--3--3--|
--1--1--------1-----1--------|--------------------------|


  E  E  E  E  E  E  E  E     E  E  E  E  E  E  E  E   
--------4--4--------4--4--|--------------------------|
--------4--4--------4--4--|--------------------------|
--------2--2--------2--2--|--------2--2--------2--2--|
--------------------------|--2--2--2--2--2--2--2--2--|
--------------------------|--0--0--3--3--0--0--3--3--|
--1--1--------1--1--------|--------------------------|


                      |---3--|                 |----3----|     
  E  E    E  E  E  E  E   E  E     E  E  E  E  Q    Q    Q     
--------------------------------|-----------------------------|
--------------------------------|-----------------------------|
--------------------------------|-----------------------------|
--------3g5--5--------3h--5--5--|--------3--3-----------------|
--------------------------------|-----------------------------|
--3--3----------3--3------------|--1--1--------1----3----4----|


  >                  
  W                  
-------------------||
-------------------||
-------------------||
-------------------||
-------------------||
--5----------------||

      E   E    E  E   Q      E   E     E   E     Q    E   E  Q     
D#||-----10b--10--8-----------------|--8b--Lpbr--L----Lb--L--x----|
A#||-----------------10~----10--10--|------------------------x----|
F#||--------------------------------|-----------------------------|
C#||--------------------------------|-----------------------------|
G#||--------------------------------|-----------------------------|
D#||--------------------------------|-----------------------------|


         |-3-|                      |--3--|    |---3---|   |---3---|          
  E   E  E   Q      E  E   Q        E  E  E    E   E   E   E   E   E   Q      
---------8--10b----10--8---------|-------------------------------------------|
-----10-------------------10~----|--8--5-------------------------------------|
---------------------------------|--------7br--Lp--5h--7b--L~--7~--7~--7~----|
---------------------------------|-------------------------------------------|
---------------------------------|-------------------------------------------|
---------------------------------|-------------------------------------------|


    W                   W                   W                 
|--------------------|-------------------|-------------------|
|--------------------|-------------------|-------------------|
|*-------------------|-------------------|-------------------|
|*-------------------|-------------------|-------------------|
|--------------------|-------------------|-------------------|
|--------------------|-------------------|-------------------|


  W                   W                   W                   W                 
-------------------|-------------------|-------------------|-------------------|
-------------------|-------------------|-------------------|-------------------|
-------------------|-------------------|-------------------|-------------------|
-------------------|-------------------|-------------------|-------------------|
-------------------|-------------------|-------------------|-------------------|
-------------------|-------------------|-------------------|-------------------|


  W                   W                      W                 
-------------------|--------------------||--------------------|
-------------------|--------------------||--------------------|
-------------------|-------------------*||*-------------------|
-------------------|-------------------*||*-------------------|
-------------------|--------------------||--------------------|
-------------------|--------------------||--------------------|


  W                   W                   W                   W                 
-------------------|-------------------|-------------------|-------------------|
-------------------|-------------------|-------------------|-------------------|
-------------------|-------------------|-------------------|-------------------|
-------------------|-------------------|-------------------|-------------------|
-------------------|-------------------|-------------------|-------------------|
-------------------|-------------------|-------------------|-------------------|


  W                   W                   W                   
-------------------|-------------------|--------------------||
-------------------|-------------------|--------------------||
-------------------|-------------------|-------------------*||
-------------------|-------------------|-------------------*||
-------------------|-------------------|--------------------||
-------------------|-------------------|--------------------||


               >                                        
  H        E   E   Q         Q      Q      Q.       E   
--------------20---L\----|---------10b----10b-------L--|
--------------20---L\----|-----------------------------|
--------------19---L\----|---x/------------------------|
-------------------------|---x/------------------------|
-------------------------|---x/------------------------|
-------------------------|-----------------------------|


  |-3-|                                                          
  E   Q     E   E   Q    Q       E   E  E   E   E    E    Q      
--8-------------8b--L---------|---------8--10--10b--10pb--8b----|
-----10----10~----------------|-----10--------------------------|
------------------------------|---------------------------------|
------------------------------|---------------------------------|
------------------------------|---------------------------------|
------------------------------|---------------------------------|


  |-3|     |--3--|    |---3--|                   |----3---|                
  E  Q     E  E  E    E   E  E   Q        E   E  E   E    E   Q      Q     
--8--8~--------------------------------|---------8--10b---L--10b-----L----|
-----------8--5------------------------|-----10---------------------------|
-----------------7br--Lp--5--7~--L~----|----------------------------------|
---------------------------------------|----------------------------------|
---------------------------------------|----------------------------------|
---------------------------------------|----------------------------------|


  |-3-|               |-3-|                
  E   Q      E    E   E   Q      E    E    
--8-------------------8-------------------|
-----10~----10~--10~-----10~----10~--10~--|
------------------------------------------|
------------------------------------------|
------------------------------------------|
------------------------------------------|


  |----3---|                                                            
  E   E    E   E  E   E    E   E   E      E    E  Q      E    E  Q      
--8--10b---L--10--8------------8--10--|--10b---L--8b----10b---L--8b----|
---------------------10~--10~---------|--------------------------------|
--------------------------------------|--------------------------------|
--------------------------------------|--------------------------------|
--------------------------------------|--------------------------------|
--------------------------------------|--------------------------------|


                                                 |----3---|   
   Q     E.   S  Q     E   E       H.            E    E   E   
--10b----8b---8--------8--10b--|---L~------------8s--10------|
----------------10~------------|-------------------------10--|
-------------------------------|-----------------------------|
-------------------------------|-----------------------------|
-------------------------------|-----------------------------|
-------------------------------|-----------------------------|


         |-3-|                              |----3---|                    
   Q     E   Q      E   E  E  E      E   E  E   E    E   E  E   E    E    
--10~----8-----------------8--L/--|---------8--10b---L--10--8------------|
------------10~----10--10---------|--x--10---------------------10~--10~--|
----------------------------------|--x-----------------------------------|
----------------------------------|--------------------------------------|
----------------------------------|--------------------------------------|
----------------------------------|--------------------------------------|


  |-3-|                                   
  E   Q       E  E   E    E      E    E   
--8--10br-----L--8--10b---Lpbr---Lb---L--|
--------------------10b---Lpbr---Lb---L--|
-----------------------------------------|
-----------------------------------------|
-----------------------------------------|
-----------------------------------------|


          |----3----|                    
   Q      E      E  E   E     E   Q      
--10b-----Lpbr---L--8b--Lpbr--L--10b----|
--10b-----Lpbr---L--8b--Lpbr--L--10b----|
----------------------------------------|
----------------------------------------|
----------------------------------------|
----------------------------------------|


                  |-3-|     |----3---|       |---3---|                      
   E     E  Q     E   Q     E  E  S  S       E   E   E   H         E  E     
---Lpb---L--8b----8-----------------------|--------------------------------|
---Lpb---L-----------10~----8--5----------|------------------------8-------|
----------------------------------7b-Lpbr-|--Lp--5h--7b--L~-----------7br--|
------------------------------------------|--------------------------------|
------------------------------------------|--------------------------------|
------------------------------------------|--------------------------------|


                                                        tr    tr           
  |---3--|   |----3----|        |--3--|           |--3--|                  
  E   E  E   E     E   E  E  E  E  E  E     E  E  E  E  E     H            
-----------------------------------------|--------------------------------|
-----------------------------------------|--------------------------------|
--Lp--5--7b--Lpbr--Lp--5-----------------|--------------------5(7)--------|
--------------------------7--7--5--------|--------------5(7)--5(7)--------|
-----------------------------------7--6--|--5-----5-----------------------|
-----------------------------------------|-----8-----8--------------------|


        |---3---|        |---3---|           |---3---|        |---3---|   
  E  E  E   E   E  E  E  E   E   E     E  E  E   E   E  E  E  E   E   E   
------------------------------------|------------------------------------|
------------------------------------|------------------------------------|
--------5-------5--------5-------5--|--------5-------5--------5-------5--|
------------------------------------|------------------------------------|
--3--3-----(3)-----3--3-----(3)-----|--3--3-----(3)-----3--3-----(3)-----|
------------------------------------|------------------------------------|


                    |--3--|           |--3--|        |--3--|   
  E  E  E  E  E  E  E  E  E     E  E  E  E  E  E  E  E  E  E   
-----------------------------|--------------------------------|
-----------------------------|--------------------------------|
--------3-----------3-----3--|--------3-----3--------3-----3--|
-----------------------------|--------------------------------|
--1--1-----1--1--1-----1-----|--1--1-----1-----1--1-----1-----|
-----------------------------|--------------------------------|


                                   |--3--|  |--3--|  |-3| |3|   
  E  E  E  E  E  E  E  E     E  E  E  E  E  E  E  E  E  S S E   
--------------------------|------------------------------------|
--------------------------|------------------------------------|
--------------------------|------------------------------------|
--------3--3--------1--3--|--------3-----1-----1--3--1--0-3-0--|
--------------------------|-----------3-----------0------------|
--1--1--------1--1--------|--1--1------------------------------|


                                               |--3--|   
  E  E  E  E  E  E  E  E     E  E  E  E  E  E  E  E  E   
--------------------------|-----------------------------|
--------------------------|-----------------------------|
--2--2--2--2--2--2--2--2--|--2--2-----2--------------2--|
--2--2--2--2--2--2--2--2--|--2--2--5--2--2--2--5--2--2--|
--0--0--3--3--0--0--3--3--|--0--0--3--0--0--0--3--0-----|
--------------------------|-----------------------------|


  E  E  E  E  E  E  E  E     W                   W                 
--------------------------|-------------------|-------------------|
--------------------------|-------------------|-------------------|
--2--2--2--2--2--2--2--2--|-------------------|-------------------|
--2--2--2--2--2--2--2--2--|-------------------|-------------------|
--0--0--3--3--0--0--3--3--|-------------------|-------------------|
--------------------------|-------------------|-------------------|


  W                   W                   W                   W                 
-------------------|-------------------|-------------------|-------------------|
-------------------|-------------------|-------------------|-------------------|
-------------------|-------------------|-------------------|-------------------|
-------------------|-------------------|-------------------|-------------------|
-------------------|-------------------|-------------------|-------------------|
-------------------|-------------------|-------------------|-------------------|


  W                   W                   Q    H         E   E   
-------------------|-------------------|-------8b--------8b--L--|
-------------------|-------------------|------------------------|
-------------------|-------------------|------------------------|
-------------------|-------------------|------------------------|
-------------------|-------------------|------------------------|
-------------------|-------------------|------------------------|


        |--3--|         |--3--|                           
  E  E  E  E  E   Q     E  E  E      Q     Q    H         
--5-----5--8--5~--L~--------------|----------------------|
-----5------------------8--5------|----------------------|
------------------------------7b--|--L\------------------|
----------------------------------|----------------------|
----------------------------------|----------------------|
----------------------------------|----------------------|


  H        E  E   E  E      Q      E   E   Q    Q       H        Q     Q      
---------------------8--|--------------8b--L---------|----------------10b----|
-----------------10-----|--10~----10~----------------|-----------------------|
--------------9---------|----------------------------|-----------------------|
------------------------|----------------------------|-----------------------|
------------------------|----------------------------|-----------------------|
------------------------|----------------------------|-----------------------|


                 >                                        
  |-3-|                                                   
  E   Q      E   E    Q     Q       H        Q     Q      
--8-------------17s---x\---------|----------------10b----|
-----10~----10--17s---x\---------|-----------------------|
----------------16s---x\---------|-----------------------|
---------------------------------|-----------------------|
---------------------------------|-----------------------|
---------------------------------|-----------------------|


                     |---3--|              |-------3------|      
   Q    Q      Q     E   E  E     H        Q        Q     Q      
---L----8b---------------------|----------------15g17s----8b----|
--------------10----10p--8-----|--------------------------------|
----------------------------9--|--------------------------------|
-------------------------------|--------------------------------|
-------------------------------|--------------------------------|
-------------------------------|--------------------------------|


        |--3--|                                     
  E  E  E  E  E  Q     Q       H        Q    Q      
--L--8--5-----8--5~---------|----------------------|
-----------5----------------|----------------------|
----------------------------|----------------7b----|
----------------------------|----------------------|
----------------------------|----------------------|
----------------------------|----------------------|


                                                    |--3--|    
  Q    E   E   E   E   E   E     Q    E    E  E  E  E  E  E    
-------5~--5~--L~--5~--5~--5--|-------8br--L--5-----5--8--5~--|
------------------------------|------------------5------------|
--L---------------------------|-------------------------------|
------------------------------|-------------------------------|
------------------------------|-------------------------------|
------------------------------|-------------------------------|


            >                                                    
  Q     E   E   H           E  E    E    E    E    E    E   E    
--L~-------17\-----------|----------------------------------8b--|
-------------------------|---------10~--10~---L~--10~--10~------|
-------------------------|-----9~-------------------------------|
-------------------------|--------------------------------------|
-------------------------|--------------------------------------|
-------------------------|--------------------------------------|


                                           |---3--|                          
  Q    Q    H           Q     E   E   Q    E   E  E      Q    Q    H         
--L------------------|-------10b--8b--L----8------8b--|--8------------------|
---------------------|------------------------10------|---------------------|
---------------------|--------------------------------|---------------------|
---------------------|--------------------------------|---------------------|
---------------------|--------------------------------|---------------------|
---------------------|--------------------------------|---------------------|


  Q    E   E     E  E   Q         Q      E   E   Q    Q     
----------10br---L--8---------|--------------8b--L---------|
-----------------------10~----|--10~----10~----------------|
------------------------------|----------------------------|
------------------------------|----------------------------|
------------------------------|----------------------------|
------------------------------|----------------------------|


           >           >                                   
  Q    E   E    Q      E    E         Q     Q    H         
----------17~---L~----17~---Lpbr--|---L\------------------|
----------------------------------|-----------------------|
----------------------------------|-----------------------|
----------------------------------|-----------------------|
----------------------------------|-----------------------|
----------------------------------|-----------------------|


           >           >  >  >                          
  |---3--|             |--3--|                          
  Q    S S E  E  E  E  E  E  E     Q     Q    H         
-----------------------5--5--5--|--L\------------------|
-----------------------5--5--5--|--L\------------------|
--------------------0--5--5--5--|--L\------------------|
-------7-7-7--7--L--0-----------|----------------------|
--------------------------------|----------------------|
-------5-5-5--5--L--------------|----------------------|


  |-3-|                                                          
  E   Q      E   E   E    E      E  E      H         Q     Q     
--8--------------8--10b--10pbr--10--8--|--10b--------8b----L----|
-----10~----10~------------------------|------------------------|
---------------------------------------|------------------------|
---------------------------------------|------------------------|
---------------------------------------|------------------------|
---------------------------------------|------------------------|


  |-3-|                                                                  
  E   Q      E   E   E    E  E  E      E   E     E  E   Q      E    E    
--8--------------8b--Lpb--L---------|-----10br---L--8-------------------|
-----10~----10~-----------------xs--|--x---------------10~----10~--10~--|
--------------------------------xs--|--x--------------------------------|
------------------------------------|-----------------------------------|
------------------------------------|-----------------------------------|
------------------------------------|-----------------------------------|


                                          |-3-|                          
  E   S  S E    E    E  S  S   E    E     E   Q       Q      Q    Q      
--8--10p-8-Lbr--Lb------8--------------|--8--10br-----Lb-----L----8~----|
-----------8br--Lb--10----10~--L~--10--|--------------------------------|
---------------------------------------|--------------------------------|
---------------------------------------|--------------------------------|
---------------------------------------|--------------------------------|
---------------------------------------|--------------------------------|


  H         S  E  S   E   E     Q      E   E   E   E   E   E    
--L~--------8-----8----------|---------------------------------|
--------------10-------------|---------------------------------|
--------------------9g7p--5--|--7br----Lp--5b--7p--5b--7p--5b--|
-----------------------------|---------------------------------|
-----------------------------|---------------------------------|
-----------------------------|---------------------------------|


  Q      E   E   E   E   E  E     W                   
-------------------------------|--------------------||
-------------------------------|--------------------||
--7br----Lp--5b--7p--5b--------|--------------------||
-------------------------7--5--|--7~----------------||
-------------------------------|--------------------||
-------------------------------|--------------------||



Duration Legend
---------------
W - whole
H - half
Q - quarter
E - 8th
S - 16th
T - 32nd
X - 64th
. - note dotted
|-n-|  - n-tuplets


Tablature Legend
----------------
L - tied note
x - dead note
g - grace note
(n) - ghost note
> - accentuded note
NH - natural harmonic
AH - artificial harmonic
TH - tapped harmonic
SH - semi harmonic
PH - pitch harmonic
h - hammer on
p - pull off
b - bend
br - bendRelease
pb - preBend
pbr - preBendRelease
brb - bendReleaseBend
\n/ - tremolo bar dip
\n - tremolo bar dive
-/n - tremolo bar Release up
/n\ - tremolo bar inverted dip
/n - tremolo bar return
-\n - tremolo bar Release down
S - shift slide
s - legato slide
/ -  slide into from below or out of upwards
\ -  slide into from above or out of downwards
~ - vibrato
W - wide vibrato
tr - trill
TP - tremolo picking
T - tapping
S - slap
P - pop
< - fade in
^ - brush up
v - brush down
comments
We did not receive enough feedback on this tab! Please rate:
print report bad tab
1 2 3 4 5
I want to post or [tab]
guest
You may want to rate the tab now too:
select rating
Please do not post tabs as comments. Select "correction" instead!