Oops, an error
Loading. Please wait.
874 views 6 this week
no commentswrite comment
1 2 3 4 5
please rate
add to favorites launch autoscroll
font size
0
reset
Autoscroll
+/-
esc
set tempo
stop
Contributor
Tuning
D# G# C# F# A# D#
WARNING: You are trying to view
                                    content from Ultimate-Guitar.com
                                    in an unauthorized application,
                                    which is prohibited.

                                    Please use an official Ultimate
                                    Guitar Tabs application for iPhone,
                                    iPad or Android to access legitimate
                                    chords, guitar, bass, and drum tabs
                                    from Ultimate-Guitar.com database.

                                    Type "ultimate guitar tabs" in Apple
                                    App Store's or Android Market's
                                    search to find the application.
#----------------------------------PLEASE NOTE---------------------------------#
#This file is the author's own work and represents their interpretation of the #
#song. You may only use this file for private study, scholarship, or research. #
#------------------------------------------------------------------------------#

D/FW
As recorded by Stevie Ray Vaughan and Jimmie Vaughan
(From the 1990 Album FAMILY STYLE)

Transcribed by TLSspider for Power Tab Editor
        

Words and Music by Jimmie Vaughan
Arranged by Stevie Ray Vaughan and Jimmie Vaughan

Gtr I (D# G# C# F# A# D#) - 'Jimmie Vaughan'
Gtr II (D# G# C# F# A# D#) - 'Stevie Ray Vaughan'
Gtr III (D# G# C# F# A# D#) - 'Jimmie Vaughan'
Gtr IV (D# G# C# F# A# D#) - 'Guitar 1 effects'

 Intro
  Moderately Fast Rock Q=148
 4/4
  Gtrs I, IV
  H    Q  E  E   E E  E  E S   +S     E E  E
|--------------|-----------------------------|
|--------------|-----------------------------|
|--------------|-----------------------------|
|--------------|-8-8-10-12-8b9-(8)b9---------|
|-----------10-|---------------------10-8----|
|--------------|--------------------------10-|
|
| Gtr II
| W              W
|--------------|-----------------------------|
|--------------|-----------------------------|
|--------------|-----------------------------|
|--------------|-----------------------------|
|--------------|-----------------------------|
|--------------|-----------------------------|


                         Chorus
   E  E E  E E E E   E    +Q   E E Q    Q
|----------------------||--------------------|
|----------------------||--------------------|
|----------------------||--------------------|
|----------------3---5-||-(5)--3---5---------|
|-10-10-8--------------||--5-----------------|
|---------10-6---------||----3---------------|
|                          E E Q   Q    Q
|
|                            ~~~~
|  H         Q   S S E     E E E E S E. E  E
|--------------------3-||--------------------|
|------------------3---||--6s8-8---6-8----/8-|
|----------------------||--------------------|
|----------------------||--------------------|
|----------------------||--------------------|
|----------------------||--------------------|


   Q    E  E   Q   Q             Q   E  E E E Q
|------------------------------|-----------------|
|------------------------------|-----------------|
|------------------------------|-----------------|
|-------3--5---5---------------|-----3----5------|
|--5---------------------------|-5---------------|
|-----3------------------------|---3-------------|
|  E  E H.                       E E H.
|
|  Q.      S S E E S    S    E   W
|------------------------------|-----------------|
|-(8)------6-------------------|-----------------|
|------------7s5-3-3b4-(3)b4---|-----------------|
|------------------------------|-----------------|
|------------------------------|-----------------|
|------------------------------|-----------------|


   Q    E  E +Q   E E   Q   E  E Q     E    E
|---------------------|-------------------------|
|---------------------|-------------------------|
|---------------------|-------------------------|
|-------3--5-(5)--5---|-----3----5----------5---|
|--5------------------|-5-----------------------|
|-----3---------------|---3---------------------|
|  E  E H.              E E H.
|
|          Gtr III
|  PM                     ~~~~~
|  Q.      E  Q   E E   E E E  E S  E. E a  E
|-13\---------------3-|-3-3-3----3-(3)---3-(3)--|
|-13\---------------3-|-6-8-8----6s=8----6s=8---|
|-13\-----------------|-------------------------|
|---------------------|-------------------------|
|---------------------|-------------------------|
|---------------------|-------------------------|


   Q    E  E   Q.    E   Q   E  E Q.   E
|----------------------|-----------------|
|----------------------|-----------------|
|----------------------|-----------------|
|-------3--5---5-------|-----3--5-5------|
|--5-------------------|-5---------------|
|-----3----------------|---3-------------|
|  E  E H.               E E H.
|
| Gtr III
|  Q.      S S E  Q  E   W
|----------------------|-----------------|
|-(8)------6p3---------|-----------------|
|--------------5--3----|-----------------|
|----------------------|-----------------|
|----------------------|-----------------|
|----------------------|-----------------|


  Q   E  E Q.    E   Q   E  E   E Q.
|------------------|------------------------|
|------------------|------------------------|
|------------------|------------------------|
|-----3--5-5-------|-----3--5-----5---------|
|-5----------------|-5----------------------|
|---3--------------|---3--------------------|
| E E H.             E E H.
|
|     Gtr II
| H        Q   E E   E E e  E a E E  E a E
|----------------3-|------------------------|
|----------------3-|-6s8-8----6s8------6s8--|
|------------------|------------------------|
|------------------|------------------------|
|------------------|------------------------|
|------------------|------------------------|


                                     (C)
  Q    E    E   Q.             E      E  E E S S E E E     E
|----------------------------------|-------------------------|
|----------------------------------|-------------------------|
|----------------------------------|-------------5-5-5-----5-|
|------3----5---5------------------|-------2-----5-5-8b8.5-5-|
|-5--------------------------------|--3--3---5-7-3-3-------3-|
|----3-----------------------------|-------------------------|
| E  E H.
|
|                              Gtr III
| ~~                             ~
| Q.      a S S E  E   +S    S S S   +E  E E E   E E E     E
|---------x------------------------|-----3-3-----3---3-------|
|-8---------6------------------3h5-|-(5)-----5-----5-------5-|
|-------------7s5--3b4-(3)b4-------|-------------------------|
|----------------------------------|-------------------------|
|----------------------------------|-------------------------|
|----------------------------------|-------------------------|


                                   (G)
  +E     E   S S E  E  E E     E   Q   E    E Q.        E
|--------------------------------|------------------------|
|--------------------------------|------------------------|
|----------------5--5--3-5b5.5-5-|------------0-----------|
|------------2---5--5----------5-|-----3---------5--------|
|-(3)----3---5s7-3---------------|-5---5------------------|
|--------------------------------|------------------------|
|                                  E H           Q.
|
|                                             ~~
|  E     S S E   E +E  E E     E   E E S E.   Q     E a E
|--6b6.5-3---3---3-(3)-----------|-3---3------3-------3---|
|----------5-----------3-6-----3-|-----6s8----8-------6s8-|
|--------------------------------|------------------------|
|--------------------------------|------------------------|
|--------------------------------|------------------------|
|--------------------------------|------------------------|


  Gtr I
                                                      ~~
   E  E E E   +E  Q   E   E E      E    +E     E      Q    E
|-----------------------|-6-6b6.5--8b10-(8)b10-6b6.5----------|
|---------------------8-|-----------------------------8-------|
|-----------------------|-------------------------------------|
|-------3-5---(5)-5-----|-------------------------------------|
|--5--------------------|-------------------------------------|
|-----5-----------------|-------------------------------------|
|
|                     Gtr I
|  ~~~                                                ~~   PM
|  Q.     S S  E  e E E   E E      E     E     E      Q    E
|-(3)-------------------|-------------------------------------|
|-(8)-----6p3-----------|-------------------------------------|
|--------------5--3-----|-------------------------------------|
|---------------------5-|-8-8-----10----10b12--8b8.5----------|
|-----------------------|-1-1b1.5--3-----5-----1-----10---(5)-|
|-----------------------|-----------------------------3-------|
                          E E      E     E     E      E Q


  Gtr III
                  ~~~~~~~~~~~~~~~~~~~~~~~~~
  E     E E  E    H        W            W
|-3-------3-(3)--(3)----|-(3)--------|-(3)----||
|-6-------6s=8---(8)----|-(8)--------|-(8)----||
|-----------------------|------------|--------||
|-----------------------|------------|--------||
|-----------------------|------------|--------||
|-----------------------|------------|--------||
|
| E     E E  E   +H        W            W
|-----------------------|------------|--------||
|-----------------------|------------|--------||
|-----------------------|------------|--------||
|-----------------------|------------|--------||
|-8b8.5---8-10--(10)----|-(8)--------|--------||
|-1-------1--3---(3)----|-(3)--------|-(3)----||
  Q       E  E   +H        W            W


   Verse
    Gtr III
                                           ~~~~~~~
     E     E  Q   E    E    Q    Q   E  S  S   E  E Q
||----------------3----3-------|-----------------------|
||o-(8)\-(19)-----6b8-(6)b8----|--------6s=8--(8)-8----|
||-----------------------------|-----------------------|
||-----------------------------|-----------------------|
||o----------------------------|-----------------------|
||-----------------------------|-----------------------|
|
|   Gtr II
|                                          ~~~~~~~
|    H            E    E    Q    Q   E  S  S   E  E Q
||----------------3----3-------|--------3-(3)-(3)-3----|
||o---------------6b8-(6)b8----|--------6s=8--(8)-8----|
||-----------------------------|-----------------------|
||-----------------------------|-----------------------|
||o----------------------------|-----------------------|
||-----------------------------|-----------------------|
|
|   Gtrs I, III
|    Q        E E Q         Q    Q   E  E      Q    Q
||-----------------------------|-----------------------|
||o----------------------------|-----------------------|
||-----------------------------|-----------------------|
||---5--------3---5------------|-----3--5------5-------|
||o--5-------------------------|-5---------------------|
||---------3-------------------|---3-------------------|
     E     E  Q   Q         Q    E E H.


  H        E.           S    Q     Q   E  S  S   E  Q   E
|----------3------------3--------|-------------------------|
|----------6b8---------(6)b8-----|--------6s=8--(8)-8------|
|--------------------------------|-------------------------|
|--------------------------------|-------------------------|
|--------------------------------|-------------------------|
|--------------------------------|-------------------------|
|
|               ~~~~~                        ~~~
| H        S    E       S    E E   Q   E  S  S   E  E E E
|----------3---(3)------3----3---|--------3-(3)-(3)-3---3--|
|----------6b8-(6)b8-------------|--------6s=8--(8)-6---5--|
|--------------------------------|-------------------------|
|--------------------------------|-------------------------|
|--------------------------------|-------------------------|
|--------------------------------|-------------------------|
|
| Q   E  E E         E       Q     Q   E  E     +Q    E E
|--------------------------------|-------------------------|
|--------------------------------|-------------------------|
|--------------------------------|-------------------------|
|-----3----5---------------------|-----3--5-----(5)---5----|
|-5------------------------------|-5-----------------------|
|---3----------------------------|---3---------------------|
  E E H.                           E E H.


  Gtr II
                    ~~~~~~~~
                                 |-3-|
  E E E E a E E E a E    Q.      S S S E E    E  E
|---------------------|----------6-----------------|
|-6s8-8---6s8-8---6s8-|-(8)--------6---------------|
|---------------------|--------------7s5p3b4-(3)---|
|---------------------|----------------------------|
|---------------------|----------------------------|
|---------------------|----------------------------|
|
| Gtrs I, III
| Q   E E   Q   Q        Q    E  E     Q      Q
|---------------------|----------------------------|
|---------------------|----------------------------|
|---------------------|----------------------------|
|-5---3-----5---------|-------3--5-----5-----------|
|-5-------------------|--5-------------------------|
|---3-----------------|-----3----------------------|
  E E Q     Q   Q        E  E H.


  W                 H         E   E  E E
|-----------------|--------------(3)---3-|
|-----------------|---------------3----3-|
|-----------------|---------------6------|
|-----------------|----------------------|
|-----------------|----------------------|
|-----------------|----------------------|
|
| Q   E  E E E Q    Q   E  E +Q      E E
|-----------------|----------------------|
|-----------------|----------------------|
|-----------------|----------------------|
|-----3----5------|-----3--5-(5)-----5---|
|-5---------------|-5--------------------|
|---3-------------|---3------------------|
  E E H.            E E H.


      ~~              ~~~~~~~~~
  E E E  S S  E  E E  E     Q.      S S E  E Q
|-3-3-3----3-(3)---3-(3)-|-(3)-------------------|
|-6-8-8----6s=8----6s=8--|-(8)------6p3----------|
|------------------------|--------------5--3-----|
|------------------------|-----------------------|
|------------------------|-----------------------|
|------------------------|-----------------------|
|
| Q   E  E    Q    E  E     Q    E  E   Q.     E
|------------------------|-----------------------|
|------------------------|-----------------------|
|------------------------|-----------------------|
|-----3-------5-------5--|-------3--5---5--------|
|-5----------------------|--5--------------------|
|---3--------------------|-----3-----------------|
  E E H.                    E  E H.


                    Gtr II
  W                 H        Q   E E
|-----------------|--------------------|
|-----------------|----------------3---|
|-----------------|--------------------|
|-----------------|--------------------|
|-----------------|--------------------|
|-----------------|--------------------|
|
| Q   E  E Q.   E   Q   E  E Q.    E
|-----------------|--------------------|
|-----------------|--------------------|
|-----------------|--------------------|
|-----3--5-5------|-----3--5-5---------|
|-5---------------|-5------------------|
|---3-------------|---3----------------|
  E E H.            E E H.


                            ~~~~~~~~                      ~~~
  E E    E  E   E    E  E S S   +Q.      S S E  E    E  S S
|-----------------------3-----|-----------------------------|
|-6-6b8-(6)-6b8-6b8r(6)---6s8-|-(8)------6--------------3s5-|
|-----------------------------|------------7s5--3b4-(3)-----|
|-----------------------------|-----------------------------|
|-----------------------------|-----------------------------|
|-----------------------------|-----------------------------|
|
| Q      E  E   E    Q.          Q    E  E   Q.         E
|-----------------------------|-----------------------------|
|-----------------------------|-----------------------------|
|-----------------------------|-----------------------------|
|--------3--5--------5--------|-------3--5---5--------------|
|-5---------------------------|--5--------------------------|
|---3-------------------------|-----3-----------------------|
  E E    H.                      E  E H.


 ~~~~~
  +E  E E E   Q   E     E    E     E E   E +E  E E     E
|-----3-3-----3---3-----3-|--6b6.5-3-----3-(3)------------|
|-(5)-----5---------------|----------5---------3-6-----3--|
|-------------------------|-------------------------------|
|-------------------------|-------------------------------|
|-------------------------|-------------------------------|
|-------------------------|-------------------------------|
|
|  E  E E S S E E E     E   +E     E S S E  E  E E     E
|-------------------------|-------------------------------|
|-------------------------|-------------------------------|
|-------------5-5-5-----5-|--------------5--5--3-5b5.5-5--|
|-------2-----5-5-8b8.5-5-|----------2---5--5----------5--|
|--3--3---5-7-3-3-------3-|-(3)----3-5s7-3----------------|
|-------------------------|-------------------------------|


                                              Gtr
         ~~~           ~~~~~~~~
  E E S  E.   E E E a  E    Q.      S S e e E  E
|-3---3-(3)---3-3---3-(3)-|-3--------------------|
|-----6s=8----8-8---6s=8--|-8-------6p3--------8-|
|-------------------------|-------------5-3------|
|-------------------------|----------------------|
|-------------------------|-------------------10-|
|-------------------------|----------------------|
|                           H.              E  E
|
| Q   E     E Q   Q         Q    E  E   Q   Q
|-------------------------|----------------------|
|-------------------------|----------------------|
|-------------------------|----------------------|
|-5---3-------5-----------|------3--5---5--------|
|-5-----------------------|-5--------------------|
|---3---------------------|----3-----------------|
  E E Q       Q   Q         E  E H.


 II
  E E      E   E E      E Q       E E E  E  +H          +W
|-6-6b6.5--8--10-6b6.5----------|-3---3--------------|--------------||
|-----------------------8-------|-6---6h=8--(8)------|--(8)---------||
|-------------------------------|--------------------|--------------||
|-8-8b8.5-10--12-8b8.5----------|--------------------|--------------||
|----------------------10---(5)-|-8---8-10-(10)------|-(10)---------||
|-------------------------------|--------------------|--------------||
| E E      E   E E      E E  E    Q   E  E  +H          +W
|
|                                                        ~~~~
| Q        E   E E      E Q       Q   E  E  +Q   E E     H     H
|-------------------------------|--------------------|--------------||
|-------------------------------|--------------------|--------------||
|-------------------------------|--------------------|--------------||
|----------3-----5--------------|-----3--5--(5)--5---|--(5)---------||
|-5-----------------------------|-5------------------|--------------||
|---3---------------------------|---3----------------|--------------||
  E E      H.                     E E H.


 Verse
              Gtr III
                   ~~~
  S  E.   Q   E.   S  Q    Q   E  a  E  E    E   S  S E
|-------------3---(3)----|--------3-(3)-3----3--(3)-----|
|-x-(x)-------6b8-(8)----|--------6s=8--6b8-(8)-----3---|
|------------------------|----------------------------5-|
|------------------------|------------------------------|
|------------------------|------------------------------|
|------------------------|------------------------------|
| Q       Q   E.   S  Q    Q   E  a  E  E    E   Q
|
| Q       E E Q       Q    Q   E     E  Q        Q
|------------------------|------------------------------|
|------------------------|------------------------------|
|------------------------|------------------------------|
|-5-------3---5----------|-----3-----5--5---------------|
|-5----------------------|-5----------------------------|
|-------3----------------|---3--------------------------|
  E     E Q   Q       Q    E E H.


      ~~~~~~                               ~~~~~
  E S S +Q    E.     S  Q    Q   E  a  E   E  E Q
|-------------3------3-----|--------3-(3)-(3)-3-----|
|-3-----------6b8---(8)----|--------6--8--(8)-8-----|
|--------------------------|------------------------|
|---5-5-(5)----------------|------------------------|
|--------------------------|------------------------|
|--------------------------|------------------------|
| H           E.     S  Q    Q   E  a  E   E  E Q
|
| Q      E  E E   E     Q    Q   E     E  +Q    E E
|--------------------------|------------------------|
|--------------------------|------------------------|
|--------------------------|------------------------|
|--------3----5------------|-----3-----5--(5)---5---|
|-5------------------------|-5----------------------|
|---3----------------------|---3--------------------|
  E E    H.                  E E H.


                      D
                             ~~~
  Q   E E +E  Q   E   S S E +H        Q      S  S E S S E S S S E   S E
|-------3-(3)-------|---------------------|-------3-----3-------3--------|
|-------------3-----|-----8-(8)-----------|-------3-----3-------3--------|
|-------------------|-5h7-----------------|--5h=7---5h7---5-6h7-5---3----|
|-------------5-----|---------------------|---------------------------5--|
|-------------------|---------------------|------------------------------|
|-------------------|---------------------|------------------------------|
|
| E E E E +Q    Q     E   E  E  E E E E E   +E    E E   E E   E   E   E
|-------------------|---------------------|------------------------------|
|-------------------|---------------------|------------------------------|
|-------------------|---------------------|------------------------------|
|-----3-5-(5)-------|-7---7--9----7-7-9-7-|-(7)---7-9-----7---7---9---7--|
|-5-----------------|-5---5--5--5-5-5-5-5-|-(5)---5-5---5-5---5---5---5--|
|---3---------------|---------------------|------------------------------|


  G
                  ~
  E S S E E E Q   E   H        H
|-------------------|------------------||
|-------------------|-----------------o||
|-5-3h4-------------|------------------||
|-------5---3-5---5-|-5----------------||
|-------------------|-----------------o||
|-------------------|------------------||
|
| Q     E E Q   Q     Q   E  E E E Q
|-------------------|------------------||
|-------------------|-----------------o||
|-------------------|------------------||
|-5-----3---5-------|--------3-5-------||
|-5---------5-------|-5---------------o||
|---3---------------|---3--------------||
  E E   Q   Q   Q     E E H.


 Outro
  S     S     E     E  E   E  E E E
|-----------------------------------|
|-----------------------------------|
|-------------------5--7------------|
|-8b8.5r8b8.5-8b8.5--------8--5-----|
|-------------------------------8-5-|
|-----------------------------------|
|
|                          ~~~~~~~~~~
| E           E     E  E   H
|-3-----------------3-(3)-(3)-------|
|-6-----------------6s=8--(8)-------|
|-----------------------------------|
|-----------------------------------|
|-----------------------------------|
|-----------------------------------|


                          ~~~
   E  E E     E +H        W           W
|----------------------|------------|------*|
|----------------------|------------|------*|
|----------------------|------------|------*|
|--5--3----------------|------------|------*|
|----------------------|------------|------*|
|-------6b6.5-3-(3)----|--3---------|------*|
|
|~~~~~~~~~~~~~~~~~~~~~~~~~~~~
|  W                      W           W
|-(3)------------------|-(3)--------|------*|
|-(8)------------------|-(8)--------|------*|
|----------------------|------------|------*|
|----------------------|------------|------*|
|----------------------|------------|------*|
|----------------------|------------|------*|



Duration Legend
---------------
W - whole; H - half; Q - quarter; E - 8th; S - 16th; T - 32nd; X - 64th; a - acciaccatura
+ - note tied to previous; . - note dotted; .. - note double dotted
Uncapitalized letters represent notes that are staccato (1/2 duration)
Irregular groupings are notated above the duration line
Duration letters will always appear directly above the note/fret number it represents the
duration for.  Duration letters with no fret number below them represent rests.  Multi-
bar rests are notated in the form Wxn, where n is the number of bars to rest for.  Low
melody durations appear below the staff

Tablature Legend
----------------
 h   - hammer-on
 p   - pull-off
 b   - bend
 pb  - pre-bend
 r   - bend release (if no number after the r, then release immediately)
 /\  - slide into or out of (from/to "nowhere")
 s   - legato slide
 S   - shift slide
 - natural harmonic
[n]  - artificial harmonic
n(n) - tapped harmonic
 ~   - vibrato
 tr  - trill
 T   - tap
 TP  - trem. picking
 PM  - palm muting
\n/  - tremolo bar dip; n = amount to dip
 \n  - tremolo bar down
 n/  - tremolo bar up
/n\  - tremolo bar inverted dip
 =   - hold bend; also acts as connecting device for hammers/pulls
 <> - volume swell (louder/softer)
 x   - on rhythm slash represents muted slash
 o   - on rhythm slash represents single note slash

Misc Legend
-----------
 |  - bar
||  - double bar
||o - repeat start
o|| - repeat end
*|  - double bar (ending)
 :  - bar (freetime)
 $  - Segno
 &  - Coda
Tempo markers -  = BPM(8/16=s8/s16), where s8 = swing 8ths, s16 = swing 16ths

comments
We did not receive enough feedback on this tab! Please rate:
print report bad tab
1 2 3 4 5
I want to post or [tab]
guest
You may want to rate the tab now too:
select rating
Please do not post tabs as comments. Select "correction" instead!