Oops, an error
Loading. Please wait.

Hideawayrude Mood Live Tab

ver1
ver1

Whole song

Interactive

More versions @911Tabs.com
8,361 views 15 this week
1 commentread comment
1 2 3 4 5
excellent!
x 3
Autoscroll
+/-
esc
set tempo
stop
Contributor
Tuning
D# G# C# F# A# D#
Hey! There's an official Ultimate Guitar app which is ideal
for learning songs when you're away from computer. Get the app
WARNING: You are trying to view
                                    content from Ultimate-Guitar.com
                                    in an unauthorized application,
                                    which is prohibited.

                                    Please use an official Ultimate
                                    Guitar Tabs application for iPhone,
                                    iPad or Android to access legitimate
                                    chords, guitar, bass, and drum tabs
                                    from Ultimate-Guitar.com database.

                                    Type "ultimate guitar tabs" in Apple
                                    App Store's or Android Market's
                                    search to find the application.
#----------------------------------PLEASE NOTE---------------------------------#
#This file is the author's own work and represents their interpretation of the #
#song. You may only use this file for private study, scholarship, or research. #
#------------------------------------------------------------------------------#

HIDEAWAY/RUDEMOOD (LIVE FROM MONTREUX) 
As recorded by Stevie Ray Vaughan and Double Trouble

Transcribed by Kevin Polinski
        

Words and Music by Freddie King and Stevie Ray Vaughan
Arranged by Stevie Ray Vaughan

Gtr I (D# G# C# F# A# D#) - 'Untitled'

 Intro
         Q=124(8=s8)
  N.C.             E7
 4/4
         Gtr I
           |-3-|                       |-3-| |-3-| |-3-|  |-3--|
  H    E E E E E   a E E E E E E E E   E E E E E E E E E +E  E E
|--------------0-|-2s4-------------0-|-----0-----0-----0-(0)------|
|--------0-0S2---|-----------------0-|-0S2---0S2---0S2-------0----|
|----------------|-------------------|-------------------------2--|
|----------------|-------------------|----------------------------|
|----------------|-----2-4-4-2-2-4---|----------------------------|
|----------------|-----0-0-0-0-0-0---|----------------------------|


                       A7
                                   |-3-|
  E    E E E E E E E   E E E E E E E E E   E E E E E E E E
|--------------------|-------------------|-----------------|
|--------------------|-------------------|-----------------|
|-0tr1---------------|-------------------|-----------------|
|--------------------|-------------------|-2-2-4-4-5-5-4-4-|
|------2-4-4-2-2-4-4-|-2-2-4-4-2-2-------|-0-0-0-0-0-0-0-0-|
|------0-0-0-0-0-0-0-|-0-0-0-0-0-0-0-3-4-|-----------------|


                         E7
      |-3-|      |-3-|                                 |-3-|
  E E E E E Q  a E E E   E E E E E E E E   E E E E E E E E E
|---0-----0S4--4s2p0---|-0---------0-2---|-0---------0-----0--|
|-----0S2------------2-|-0---------0-2---|-0-----------0h2----|
|----------------------|-----------0-2---|--------------------|
|-2--------------------|-----------------|--------------------|
|-0--------------------|---2-4-4-2-------|---2-4-4-2----------|
|----------------------|---0-0-0-0-----0-|---0-0-0-0----------|


  B7                      A7
                          |-3-|   |-3-|   |-3-|  |-3--|
   E E E E  E E S S S S   E E E a E E E a E E E +E  E E
|-/2-2-2-0-/4-0-0h2p0---|-0---0-------0-------0-(0)-----|
|---------------------2-|-0s2---0h1h2---0h1h2-------0---|
|-----------------------|-----------------------------2-|
|-----------------------|-------------------------------|
|-----------------------|-------------------------------|
|-----------------------|-------------------------------|


  E7                              B7                E7
                    |-3-|                   |-3-|
  E    e  E E E E a E E E   a E E E E +E  E E E E   H..        E
|------0------0-----------|---------------0-----0-|------------0--|
|------0----3-3-3---------|-0-----0---------0h2---|-0tr2----------|
|-0tr1---/4---4---4s2p0---|-0h1-----2-(2)---------|---------------|
|-----------------------2-|-----2-----------------|---------------|
|-------------------------|-----------------------|---------------|
|-------------------------|-----------------------|---------------|


  |-3-| |-3-| |-3-|  |-3--|                    |-3-|
  E E E E E E E E E +E  E E   E    e a E E E E E E E
|-----0-----0-----0-(0)-----|------0-------0-0-------|
|-0S2---0S2---0S2-------0---|------0-----3-3-3-------|
|-------------------------2-|-0tr1---2S4---4-4-2p0---|
|---------------------------|----------------------2-|
|---------------------------|------------------------|
|---------------------------|------------------------|


                          A7
                  |-3-|                  |-3-| |-3-| |-3-|  |-3--|
  a E E E E a E E E E E   H..        E   E E E E E E E E E +E  E E
|-----0-2-------0-----0-|------------0-|-----0-----0-----0-(0)------|
|-0---0-2---0---0-0-2---|-0tr2---------|-0S2---0S2---0S2-------0----|
|-0h1---2---0h1---------|--------------|-------------------------2--|
|---------2-------------|--------------|----------------------------|
|-----------------------|--------------|----------------------------|
|-----------------------|--------------|----------------------------|


  E7                                       B7
                                   |-3-|
  E    E E E E E E E   E E E E E E E E E   a E E E E  E E S S S S
|--------------0-2---|-0---------0-----0-|-0h2-2-2-0-/4-0-0h2p0----|
|--------------0-2---|-0-----------0S2---|----------------------2--|
|-0tr1-----------2---|-------------------|-------------------------|
|--------------------|-------------------|-------------------------|
|------2-4-4-2-------|---2-4-4-2---------|-------------------------|
|------0-0-0-0-----0-|---0-0-0-0---------|-------------------------|


  A7                          E7                              B7
  |-3-| |-3-| |-3-|  |-3--|                     |-3-|
  E E E E E E E E E +E  E E   E    e  E E E E a E E E   a E E E E +E  E E E
|-----0-----0-----0-(0)-----|------0------0-----------|---------------0------||
|-0S2---0S2---0S2-------0---|------0----3-3-3---------|-------0-------0------||
|-------------------------2-|-0tr1---/4-------4s2p0---|-0h1-----2-(2)---2-0--||
|---------------------------|-----------------------2-|-----2----------------||
|---------------------------|-------------------------|----------------------||
|---------------------------|-------------------------|----------------------||


 Verse
  E7
                                                                     |-3-|
  Q  E E a Q  E E   E E E E E a Q  E   Q  E E a Q  E E   E E E E E E E E E
|-----------------|------------------|-----------------|--------------------|
|-----------------|------------------|-----------------|--------------------|
|-----------------|------------------|-----------------|--------------------|
|-----------------|-----------0h2--2-|-----------------|-----------2--------|
|---------------2-|-5-2-4-2----------|---------------2-|-5-2-4-2------------|
|-0----0-3s4------|------------------|-0----0-3s4------|-------------0s3h4--|


  A7                                    E7
                                |-3-|                                 |-3-|
  Q  E E a Q  E E   E E E E E E E E E   Q  E E a Q  E E   E E E E E E E E E
|-----------------|---------------0---|-----------------|--------------------|
|-----------------|-------------------|-----------------|--------------------|
|-----------------|-------------------|-----------------|--------------------|
|---------------2-|-5-2-4-2---0h2---2-|-----------------|-----------2--------|
|-0----0-3s4------|-------------------|---------------2-|-5-2-4-2------------|
|-----------------|-------------------|-0----0-3s4------|-------------0-3-4--|


  B7              A7                E7
  Q  E E Q  E E   E E E E E E E E   Q  E E a Q  E E   E E E E E E E E
|---------------|---------------0-|-----------------|-----------------||
|---------------|-----------------|-----------------|-----------------||
|---------------|-----------------|-----------------|-----------------||
|-------------4-|-7-4-6-4---0h2---|-----------------|-----------------||
|-2----0S6------|-----------------|---------------2-|-5-2-4-2-------2-||
|---------------|-----------------|-0----0-3s4------|-----------3S4---||


 Verse
  E7
      |-3-|     |-3-|       |-3-|     |-3-|       |-3-|     |-3-|
  E E E E E E E E E E   E E E E E E E E E E   E E E E E E E E E E
|---------------------|---------------------|---------------------|
|---------------------|---------------------|---------------------|
|---------------------|---------------------|---------------------|
|---0---------0-------|---------------------|---------------------|
|---------2---------2-|---0-----2---0-----2-|---0-----2---0-----2-|
|-0---3S4---0---3S4---|-0---3S4---0---3S4---|-0---3S4---0---3S4---|


                        A7
      |-3-|     |-3-|       |-3-|     |-3-|
  E E E E E E E E E E   E E E E E E E E E E
|---------------------|---------------------|
|---------------------|---------------------|
|---------------------|---------------------|
|---------------------|---0-----2---0-----2-|
|---0-----2---2-2-----|-0---3h4---0---3h4---|
|-0---3S4---0-----3h4-|---------------------|


                        E7
      |-3-|     |-3-|       |-3-|     |-3-|       |-3-|     |-3-|
  E E E E E E E E E E   E E E E E E E E E E   E E E E E E E E E E
|---------------------|---------------------|---------------------|
|---------------------|---------------------|---------------------|
|---------------------|---------------------|---------------------|
|---0-----2---0-------|---------------------|---------------------|
|-0---3h4---0-------2-|---0-----2---0-----2-|---0-----2---0-----2-|
|---------------3h4---|-0---3h4---0---3h4---|-0---3h4---0---3h4---|


  B7                   A7                   E7
               |-3-|                |-3-|       |-3-| |-3-| |-3-|
  E E  E E E E E E E   E E  E E E E E E E   E E E E E E E E E E E
|--------------------|--------------------|------------------------|
|--------------------|--------------------|------------------------|
|--------------------|--------------------|---0---1-----2-----3----|
|----------4-4-6p4---|----------2-2-4p2---|------------------------|
|-2-2-/6-6---------6-|-0-0-/4-4---------4-|-----2---2S3---3S4---4s=|
|--------------------|--------------------|-0----------------------|


                         Bridge
             B7           E9
       |-3-|               |--3--|  |--3--|
  E  E E E E Q     E E     E  E  E  E  E  E  Q   Q
|----------------------||-12-12-12-12-12-12-12\-----|
|----------------------||--9--9--9--9--9--9--9\-----|
|-4\-------------------||-11-11-11-11-11-11-11\-----|
|----------------------||-12-12-12-12-12-12-12\-----|
|-5\---0-1-2-0tr2----0-||---------------------------|
|----3-----------------||---------------------------|


   |--3--|  |--3--|
   E  E  E  E  E  E  E  Q.
|-12-12-12-12-12-12-12\------|
|--9--9--9--9--9--9--9\------|
|-11-11-11-11-11-11-11\------|
|-12-12-12-12-12-12-12\------|
|----------------------------|
|----------------------------|


                                            A7
               |-3--|               |-3-|
   E E E E E E E  E E   E E E E E E E E E   E E E E E E E E
|-12-9S7-4S2-0-2S=4S2-|-0-4S2-0-2S4-------|-----------------|
|------------0---/4S2-|-0-----------------|-----------------|
|-11-9S7-4S2-0-2------|-0-4S2-0-2S4-------|-----------------|
|---------------------|-------------------|-2-2-4-4-5-5-4-4-|
|---------------------|-------------------|-0-0-0-0-0-0-0-0-|
|---------------------|-------------0-3-4-|-----------------|


                            E7
      |-3-| |-3-|  |-3--|          |-3-|       |-3-|
  E E E E E E E E +E  E E   E    E E E E E E a E E E
|---0-----0-----0-(0)-----|------0-------0-----------|
|-----0S2---0S2-------0---|------0-----3-3-3---------|
|-----------------------2-|-0tr1---2S4-------4S2p0---|
|-2-----------------------|------------------------2-|
|-0-----------------------|--------------------------|
|-------------------------|--------------------------|


                          B7
                  |-3-|
  a E E E E a E E E E E   a E E E E  E E S S S S
|-----0---------0-----0-|-0h2-2-2-0-/4-0-0h2p0---|
|-0h1-0-2---------0h2---|----------------------2-|
|-2-2---2---0h1---------|------------------------|
|---------2-2-2---------|------------------------|
|-----------------------|------------------------|
|-----------------------|------------------------|


    A7                              E7
    |-3-|   |-3-|   |-3-|  |-3--|          |-3-|       |-3-|
  a E E E a E E E a E E E +E  E E   E    E E E E E E a E E E
|-------0-------0-------0-(0)-----|------0-------0-----------|
|-0h1h2---0h1h2---0h1h2-------0---|------0-----3-3-3---------|
|-------------------------------2-|-0tr1---2S4-------4S2p0---|
|---------------------------------|------------------------2-|
|---------------------------------|--------------------------|
|---------------------------------|--------------------------|


                            Verse
          B7                 E7
  a E E E E +E  e E     E    E E E E E E E E   E E E E E E E E
|---------------0-------x-||-----------------|-----------------|
|-------0---------------x-||-----------------|-----------------|
|-0h1-----2-(2)---2b2.5---||-----------------|-----------------|
|-2-2-2-------------------||-----------------|-----------------|
|-------------------------||-----------------|-----------------|
|-------------------------||-0-0-2-0-3-0-5-4-|-0-0-2-0-3-0-5-4-|


                                      A7
  E E E E E E E E   E E E E E E E E   E E E E E E E E   E E E E E E E E
|-----------------|-----------------|-----------------|------------------|
|-----------------|-----------------|-----------------|------------------|
|-----------------|-----------------|-----------------|------------------|
|-----------------|-----------------|-----------------|------------------|
|-----------------|-----------------|-0-0-2-0-3-0-5-4-|-0-0-2-0-3-0-5-4--|
|-0-0-2-0-3-0-5-4-|-0-0-2-0-3-0-5-4-|-----------------|------------------|


  E7                                  B7                A7
  E E E E E E E E   E E E E E E E E   E E E E E E E E   E E E E E E E E
|-----------------|-----------------|-----------------|------------------|
|-----------------|-----------------|-----------------|------------------|
|-----------------|-----------------|-----------------|------------------|
|-----------------|-----------------|-------------2-1-|------------------|
|-----------------|-----------------|-2-2-4-2-5-2-----|-0-0-2-0-3-0-5-4--|
|-0-0-2-0-3-0-5-4-|-0-0-2-0-3-0-5-4-|-----------------|------------------|


                                               Breakdown
  E7                            B7              E7
  E E E S S E E S S E   E S S E E +E  E E S S   E E E E S S S S S S E
|---------------------|-----------------------|------------------------|
|---------------------|-----------------------|------------------------|
|---------------------|---------2-(2)---------|-----1------------------|
|-------------0-------|-2-------x-------------|-----0-------------2----|
|-------0-1-2---2p0---|---5p2-2-2-(2)---2-2-2-|---------2-2-2-2-4---4--|
|-0-0-4-------------3-|---------------3-------|-0-0---4----------------|


  E E E E S S S S S S E   E E E E E S S S S E   E E a E E E S S +S  S E
|-----------------------|-----0---------------|-------------------------|
|-----------------------|-----0---------------|-------------------------|
|-----------------------|---------------------|-------------------------|
|-----0-------------2---|-----------------2---|---------------------2---|
|---------2-2-2-2-4---4-|---------2-2-2-4---4-|-----------2-2-4-(4)---4-|
|-0-0---4---------------|-0-0---x-------------|-0-0-3S4-4---------------|


  A7                                            E7
  E E  E E E S S S S E   E E  E E E S S S S E   E E  E E S S S S S S E
|----------------------|----------------------|-------------------------|
|----------------------|----------------------|-------------------------|
|------------------2---|------------------2---|-------------------------|
|----------2-2-2-4---4-|----------2-2-2-4---4-|--------------------2----|
|-0-0-/4-4-------------|-0-0-/4-4-------------|----------2-2-2-2-4---4--|
|----------------------|----------------------|-0-0-/4-4----------------|


                         B7                     A7
  E E  E E E S S S S E   E E  E E E S S S S E   E E E E E S S S S E
|----------------------|----------------------|---------------------|
|----------------------|----------------------|---------------------|
|----------------------|------------------4---|-----------------2---|
|------------------2---|----------4-4-4-6---6-|---------2-2-2-4---4-|
|----------2-2-2-4---4-|-2-2-/6-6-------------|-0-0-4-4-------------|
|-0-0-/4-4-------------|----------------------|---------------------|


                                               Bridge
  E7                                B7          E9
      |-3-| |-3-| |-3-|       |-3-|              |--3--|  |--3--|
  E E E E E E E E E E E   E E E E E Q.     E     E  E  E  E  E  E  Q   Q
|-----------------------|--------------------||-12-12-12-12-12-12-12\----|
|-----------------------|--------------------||--9--9--9--9--9--9--9\----|
|---0---1-----2-----3---|-4------------------||-11-11-11-11-11-11-11\----|
|-----------------------|--------------------||-12-12-12-12-12-12-12\----|
|-----2---2S3---3S4---4S|=5---0-1-2-0tr2---0-||--------------------------|
|-0---------------------|---3----------------||--------------------------|


   |--3--|  |--3--|                 |-3--|     |-3-|   |-3-|
   E  E  E  E  E  E  Q   Q     E E +E  E E E E E E E   S S S E E E E  E E E
|-12-12-12-12-12-12-12\-----|-12---------------------|---------------12-----|
|--9--9--9--9--9--9--9\-----|--9---------------------|----------------9-----|
|-11-11-11-11-11-11-11\-----|-11-2-(2)p0---2-0-------|---------------11-----|
|-12-12-12-12-12-12-12\-----|-12---------2-----2-0---|---------2------------|
|---------------------------|----------------------2-|-0-2-0--------------0-|
|---------------------------|------------------------|-------3---0----------|


   |--3--|  |--3--|            |--3--|  |--3--|
   E  E  E  E  E  E  Q   Q     E  E  E  E  E  E  Q   Q
|-12-12-12-12-12-12-12\-----|-12-12-12-12-12-12-12\-----|
|--9--9--9--9--9--9--9\-----|--9--9--9--9--9--9--9\-----|
|-11-11-11-11-11-11-11\-----|-11-11-11-11-11-11-11\-----|
|-12-12-12-12-12-12-12\-----|-12-12-12-12-12-12-12\-----|
|---------------------------|---------------------------|
|---------------------------|---------------------------|


               |--3---|        |--3--|
   q   a      +E   E  E  E  E  E  E  E
|-12------------------------------------|
|--9--------------------14--------------|
|-11--14pb16r(14)p12----14-12-----------|
|--------------------14-------14p12-----|
|-----------------------------------14--|
|---------------------------------------|


   S  S  S  S  E  a  E E  E Q
|------------------------12----|
|------------------------12----|
|------------------------------|
|------------------------------|
|-14p12s10----12-10s11---------|
|----------12------------------|


   |--3--|  |--3--|       |--3--|    |--3--|          |3-|
   E  E  E  E  E  E  Q    E  E  E    E  E  E  Q   Q   Q  E
|-12-12-12-12-12-12-12\--12-12-12-|-12-12-12-12\-----12\----||
|--9--9--9--9--9--9--9\---9--9--9-|--9--9--9--9\------9\----||
|-11-11-11-11-11-11-11\--11-11-11-|-11-11-11-11\-----11\----||
|-12-12-12-12-12-12-12\--12-12-12-|-12-12-12-12\-----12\----||
|---------------------------------|-----x----------------2--||
|---------------------------------|-------------------------||


 Intro "Rude Mood"
  Q=256
  E
 4/4
  E E E E E E E E   E E E E E E E E   Q  E E E E E E   E E E E E E E E
|-----------------|-----------------|----------------|-----------------|
|-----------------|-----------------|----------------|---x-------------|
|-x---x---------x-|-x-x-x---x-x-x-x-|-x--x-----x---x-|---x---x---x---x-|
|-x---x---------x-|-2-2-x---x-x-x-x-|-x--x-----x---x-|-2-2---x---x---x-|
|-x---x---2-2-4-4-|-----x---2-2-4-4-|-x--x---2-2-4-4-|-------x-2-2-4-4-|
|-0-0-3-3---------|-----3-3---------|-0--3-3---------|-----3-3---------|


  A                                   E
  E E E E E E E E   E E E E E E E E   E E E E E E E E   E E E E E E E E
|-----------------|-----------------|-----------------|------------------|
|---x-------------|---x-------x---x-|-----------------|------------------|
|---x---x-x---x-x-|-2-2-x-x---x---x-|-x-----x---x---x-|---x---x---x---x--|
|---x---x-2-2-4-4-|-----x-x-2-2-4-4-|-x-----x---x---x-|-2-2---x---x---x--|
|-0-0-3-3---------|-----3-3---------|-x-----x-2-2-4-4-|-------x-2-2-4-4--|
|-----------------|-----x-x---------|-0-0-3-3---------|-----3-3----------|


  B7                                  E                       B7
  E E E E E E E E   E E E E E E E E   E E E E E E E E   E E E E +E  E E E
|-----------------|-----------------|-----------------|--------------------|
|-----------------|-----------------|-----------------|--------------------|
|---x---x---x---x-|---------------x-|-----------------|-------2-(2)-2-2-2--|
|---x---x---x---x-|---------------x-|-----------------|-2-0---1-(1)-1-1-1--|
|---x---x-0-0-1-1-|-2-2-0-0-------x-|---------2-2-4-4-|-----2--------------|
|-3-3-4-4---------|---------4-4-2-2-|-0-0-3-3---------|--------------------|


  E
  Q    Q   E  E  E  E    E  E  E  E  E  E  E  E
|----/12--12-12-12-12-|-12-12-12-12-12-12-12-12-|
|---------------------|-------------------------|
|---------------------|-------------------------|
|---------------------|-------------------------|
|---------------------|-------------------------|
|---------------------|-------------------------|


   E E  E E  E  E E  E   E  Q      E  E E  E E
|-12p9-----------------|------------------------|
|------12p9------------|----------12------------|
|-----------12-11p9----|-9-11b13-----11-9-------|
|-------------------11-|------------------11-9--|
|----------------------|------------------------|
|----------------------|------------------------|


  A                                        E
  E E  E E E E  E E   E E  E E  a E E Q    Q  Q   Q  E.  S   +E  E E E E E E E
|-------------------|--------------------|-----------0-----|-----0-------------|
|-------------------|--------------------|-----------------|-------------------|
|-9-9------9-9------|-9-9----------------|--------------/4-|-(4)---2-0-2-0-----|
|-----11-9-----11-9-|-----11-9-----------|-----------------|---------------2-0-|
|-------------------|----------11S9-7----|-7---------------|-------------------|
|-------------------|-----------------9--|----9\--0--------|-------------------|


  B7                C7     B7       E                       B7
  Q  E E +E  Q  E   E Q.   E Q  E   E E E E E E E E   E E E E +E  E E E
|------------2----|----------2----|-----------------|--------------------||
|-----------------|---------------|-----------------|--------------------||
|------2-(2)----2-|---3----2----0-|-----------------|-------2-(2)-2-2-2--||
|----1------------|--------x------|-----------------|-2p0---1-(1)-1-1-1--||
|-2--2------------|-3------2------|---------2-2-4-4-|-----2--------------||
|-----------------|-3------2------|-0-0-3-4---------|--------------------||


 Chorus
  E
  E E E E E E E E   E E E E E E E E   E E E E E E E E   E E E E E E E E
|-----------------|-----------------|-----------------|------------------|
|-----------------|-----------------|-----------------|------------------|
|-----0-----------|-----------------|-----------------|---0---0----------|
|-----x-----------|-2-2-------------|-----------------|-2---x------------|
|-----x---2-2-4-4-|---------2-2-4-4-|---------2-2-4-4-|---------2-2-4-4--|
|-0-0-3-3---------|-----3-3---------|-0-0-3-3---------|------------------|


  A                                   E
  E E E E E E E E   E E E E E E E E   E E E E E E E E   E E E E +E  E E E
|-----------------|---------------x-|-----------------|--------------------|
|-----------------|---------------x-|-----------------|--------------------|
|-----------------|-2-2-----------x-|-----------------|-------2-(2)--------|
|---------2-2-4-4-|---------2-2-4-4-|-----------------|-2-0---x------------|
|-0-0-3-4---------|-----3-3---------|---------2-2-4-4-|-----2-2-(2)-2------|
|-----------------|-----------------|-0-0-3-3---------|---------------3h4--|


  E E E E E E E E   E E E E E E E E   E E E E E E E E   E E E E E E E E
|-----------------|-----------------|-----------------|------------------|
|-----------------|-----------------|-----------------|------------------|
|-------x---------|---------------x-|-----------------|---------------x--|
|-------x---------|-2-2-----------x-|-2-2-------------|-2-2-----------x--|
|-------x-2-2-4-4-|---------2-2-4-4-|---------2-2-3-3-|---------2-2-4-4--|
|-0-0-x-3---------|-----3-3---------|-----3-3---------|-----3-3----------|


  B7                 C7     B7        E                       B7
  E E E E +E  Q.     E  Q   Q  Q  E   E E E E E E E E   E E E E +E  E E E
|-------------2----|-----------2--x-|-----------------|--------------------|
|------------------|----------------|-----------------|--------------------|
|-----2-2-(2)------|----3S==2-------|-----------------|-------2-(2)-2-2-2--|
|-----x------------|--------x-------|-----------------|-2-0---------x-x-x--|
|-2-2-2------------|-3-(3)S=2-------|---------2-2-4-4-|-----2-------2-2-2--|
|------------------|----------------|-0-0-3-4---------|--------------------|


 Breakdown
  E
  Q   e  E  +E   e  Q     e  Q   e  +E   E  q
|----12---------12-----|-12-----12-(12)----12--|
|----------------------|-----------------------|
|----------------------|-----------------------|
|----------------------|-----------------------|
|----------------------|-----------------------|
|-------12-(12)----12--|----12----------12-----|


   E  e E e E e E e   E e E e E e E e
|----12---9---8---7-|---4---3---2---0--|
|-------------------|------------------|
|-------------------|------------------|
|-------------------|------------------|
|-------------------|------------------|
|-12----9---8---7---|-4---3---2---0----|


  A
  E E E E E E E E   E Q.   +Q   +Q
|-----------------|---3----(3)--(3)b3.5--|
|-----------------|---3----(3)--(3)------|
|-2---------------|----------------------|
|-2-------2-2-4-4-|-0--------------------|
|-0-0-3-3---------|-0--------------------|
|-----------------|----------------------|


  E
  E E E E E E E E   S S S S +E  a E +E  Q  E
|-----------------|---------------------0-----|
|-----------------|---------------------0-----|
|-----------------|-3p2p0-------0h1-(1)-------|
|-----------------|-------2-(2)---------------|
|---------2-2-4-4-|------------------------4p=|
|-0-0-3-3---------|---------------------------|


  B7                 C7   B7         E                       B7
  E E E E +E  Q.     E Q  E E Q  E   E E E E E E E E   E E E E +E  E E E
|-------------2----|----------2----|-----------------|--------------------||
|------------------|---------------|-----------------|-------------0-2p0--||
|-------2-(2)------|---3--3S2------|-----------------|---0---2-(2)--------||
|-----1------------|-2----x--------|-----------------|-2p0---1-(1)--------||
|-2-2--------------|-3----3S2----2-|---------2-2-4-4-|-----2--------------||
|------------------|---------------|-0-0-3-3---------|--------------------||


 Guitar Break
  E
  E E E E E E E E   E E E a E +E  E E E   E E E E E E E E
|-0-0-----0-0-----|-0-0-2-2S4-(4)-0-----|-0-0-----0-0-----|
|-----2-0-0---2-0-|-0---------------2p0-|-0---2-0-0---2-0-|
|-----------------|---------------------|-----------------|
|-----------------|---------------------|-----------------|
|-----------------|---------------------|-----------------|
|-----------------|---------------------|-----------------|


                      A
  E E E S S E E E E   E E E E E E E E   E E E a E E E E E
|-0-0-2-2S3S2-0-----|-0-0-----0-0-----|-0-0-2-2S4-4-0-----|
|-0-------------2-0-|-0---2-0-0---2-0-|---------------2-0-|
|-------------------|-----------------|-------------------|
|-------------------|-----------------|-------------------|
|-------------------|-----------------|-------------------|
|-------------------|-----------------|-------------------|


  E                                        B7                C7     B7
  E E.E E   E E.  E   E E E a E +E  Q.     Q  E E +E  Q.     E Q.   E Q  E
|-0---------0-----0-|---------------0----|------------2----|----------2-----|
|-0-3p0-----0-------|---------------0----|-----------------|----------------|
|-------2b4---2b4---|-2-0---0h1-(1)------|----2-2-(2)------|---3----2----0--|
|-------------------|-----2--------------|-----------------|-2------1-------|
|-------------------|--------------------|-2---------------|-3------2-------|
|-------------------|--------------------|-----------------|-3------2-------|


  E                       B7
  E E E E E E E E   E E E E +E  E E E
|-----------------|-------------------||
|-----------------|-------------------||
|-----------------|-------2-(2)-2-2-2-||
|-----------------|-2-0---1-(1)-------||
|---------2-2-4-4-|-----2-------------||
|-0-0-3-4---------|-------------------||


 Guitar Solo
  E
  E  E   E E E E E E   E  E E E E E E E
|-0--0---0-0-0-0-0-0-|-0--0-0-0-0-0-0-0--|
|-0--0---0-0-0-0-0-0-|-0--0-0-0-0-0-0-0--|
|-2-(2)-/4-4-4-4-4-4-|-2-/4-4-4-4-4-4-4--|
|--------------------|-------------------|
|--------------------|-------------------|
|--------------------|-------------------|


  E E E a E +E  Q  E   +Q   E E E   +E  E E
|------------------0-|-(0)--0---------------|
|---------------0----|--------3-------------|
|-2p0---0h1-(1)------|----------2b4r(2)-0---|
|-----2--------------|--------------------2-|
|--------------------|----------------------|
|--------------------|----------------------|


  A
  Q  Q      E E E E     +E  E E   E   E E E E
|----3b3.5--0---------|-----0-0---0-----------|
|-------------3-0-----|-----3-3b5-3b5---------|
|-----------------2b4-|-(2)---2---2---2-0-----|
|---------------------|-------------------2-0-|
|-0-------------------|-----------------------|
|---------------------|-----------------------|


  E                                          B7                 C7     B7
  Q  Q  +E  E   +Q     E E E E   +E  E E E   E E E E +E  Q.     E Q.   E Q  E
|----0--(0)-3b5-(3)--|-0-------------0-----|-------------2----|----------2--x--|
|--------------------|---3p0---------3-----|------------------|-------------x--|
|--------------------|-------2b4-(2)---2p0-|-------2-(2)------|---3----2-------|
|--------------------|---------------------|-----1------------|--------x-------|
|--------------------|---------------------|-2-2--------------|-3------2-------|
|-0------------------|---------------------|------------------|-3------2-------|


  E                       B7
  E E E E E E E E   E E E E +E  +E    E  E
|-----------------|------------------12-12-||
|-----------------|-------------------9--9-||
|-----------------|-------2-(2)-(2)/-------||
|-----------------|-2-0---1-(1)-(1)/-------||
|---------2-2-4-4-|-----2------------------||
|-0-0-3-4---------|------------------------||


 Pre-Chorus
  E7add9
   E  E  E  E  Q   E E    E  E  E  E  Q   E E
|-12-12-12-12-12\------|----12-12-12-12\--------|
|--9--9--9--9--9\------|-----9--9--9--9\--------|
|-11-11-11-11-11\------|----11-11-11-11\--------|
|----12-12-12-12\----2S|=12-12-12-12-12\----2S==|
|----------------------|------------------------|
|----------------------|------------------------|


   E  E E E  E  E  E  E   E  E  E  E  E  E  E  E
|----12-----12-12-12-12-|---12-12-12-12-12-12-12-|
|-----9------9--9--9----|---12-12-12-12-12-12-12-|
|----11-----11-11-11----|-0----------------------|
|-12--------12-12-12----|------------------------|
|--x--------------------|------------------------|
|--0------x-------------|------------------------|


  A
   Q        E  E       +E   E  Q          E  Q        E  E       E  E  E
|-15b15.5-----15b15.5-(15)----15b15.5--|----15b15.5--12-15b15.5-----------|
|-14b14.5-----14b16---(14)----14b14.5--|-------------12-14b14.5-12-15-12--|
|----------12--------------12----------|-12-------------------------------|
|--------------------------------------|----------------------------------|
|--------------------------------------|----------------------------------|
|--------------------------------------|----------------------------------|


  E
   E  E  E  E  Q   E  E    E  E  E  Q   Q   E
|-----------------------|---------------------|
|-----------------------|---------------------|
|-15-14-12----14--------|---------------------|
|----------14-14--14-12-|--------------12--14-|
|-----------------------|-14-13-12------------|
|-----------------------|----------15---------|


  B7                            C7        B7
   +E   E  E  E  +E   E  E  E    E  Q   E  E  Q  E
|------------14-(14)-14-14-14-|----15--15S14-14--x--|
|-------------x-------x--x--x-|-----x---x-----x--x--|
|------------14-(14)-14-14-14-|-14-15--15S14-14--x--|
|-(14)-12----13-(13)-13-13-13-|----14---------------|
|---------14------------------|---------------------|
|-----------------------------|---------------------|


  E
   Q   Q   E  E E  E    E  E  E  E +E  E Q
|-----14--12-12------|-12-12----------------||
|-----14--12-12------|-12-12----------------||
|-----14--13-13------|-13-13----------------||
|-----------------14-|-14-14-(0)------------||
|--------------------|-----------2-(2)-2-4--||
|-12-----------------|----------------------||


 Chorus
  E
  E E E E E E E E   Q  E E E E E E
|-----------------|-----------------|
|-----------------|-----------------|
|---------------0h|=2----0----------|
|---------------0h|=2----0----------|
|---------2-2-4---|------x-2-2-4-4--|
|-0-0-3-3---------|----3-3----------|


                                                    A
  E E E a  E   E  E  E   E    E E E a E +E  E E E   Q  Q      +E  a Q  E
|-----------------0-(0)-(0)-|---------------0-----|----3b3.5--(3)---------|
|-----------------0-(0)-(0)-|---------------0-----|---------------0h3-----|
|-2p0---0h=1--(1)-----------|-2p0---0h1-(1)-------|--------------------2--|
|-2p0-2-2-(2)---------------|-2p0-2-2-2-----------|-----------------------|
|-x-x-x-x------x-----4---4--|-x-x-x-x---------4-4-|-0---------------------|
|-x-x-x-x------x------------|-x-x-x-x-------------|-----------------------|


                            E
   E E  E E E E E a E   +E  E a E E E E E a E   +E  E E E E E E E
|---------------------|-----0-----------------|-----0--------------|
|----3----3-----------|-----------3-----------|--------------------|
|-/4---/4---2-0---0h1-|-(1)---2h4---2-0---0h1-|-(1)---2-0-2-0------|
|---------------2-----|-----------------2-----|---------------2-0--|
|---------------------|-----------------------|--------------------|
|---------------------|-----------------------|--------------------|


  B7                 C7     B7        E                       B7
  E E E E +E  Q  E   E Q.    E Q.     E E E E E E E E   E E E E +E  E E E
|-------------2----|-----------2----|-----------------|-----------------0--||
|------------------|----------------|-----------------|-----------------0--||
|-------2-(2)----2S|=3-3----\2------|-----------------|-------2-(2)-2S4----||
|-----1------------|-2-------1------|-----------------|-2-0----------------||
|-2-2--------------|-3-------2------|---------2-2-4-4-|-----2--------------||
|------------------|----------------|-0-0-3-3---------|--------------------||


 Interlude
  E
  E E E E E E E E   +E  E E E E E E E
|-0-0-----0-0---0-|-(0)-0-----0-0---0-|
|-0---2-0-0-0---0-|-(0)---2-0-0-0---0-|
|-----------------|-------------------|
|-----------------|-------------------|
|-----------------|-------------------|
|-----------------|-------------------|


  +E  E E E E E E E   +E  E E E E E E E
|-(0)-0-----0-0-----|---------------------|
|-(0)---2-0-0---2S5-|-(5)-5-5-5-5-5-5-5S==|
|-------------------|---------------------|
|-------------------|---------------------|
|-------------------|---------------------|
|-------------------|---------------------|


  E E E E E E E E   E E E E +E  E E  E    +E   E  E  E E E  E  E
|---7---7---7---7h|=9---7-7-(7)-7-7-10-|-(10)-10--9--9-7-7-10-10-|
|-8---8---8---8---|---8---8-(8)-8-8-12-|-(12)-12-10-10-8-8-12-12-|
|-----------------|--------------------|-------------------------|
|-----------------|--------------------|-------------------------|
|-----------------|--------------------|-------------------------|
|-----------------|--------------------|-------------------------|


                        B7                  C7      B7        E
   E  E E E E E E a E   E E E E +E  Q  E     E Q.    E Q.     E E E E E E E E
|--9--9-7-7-----------|-------------2-----|------------2----|-----------------|
|-10-10-8-8-----------|-------------------|-----------------|-----------------|
|-----------2-0---0h2-|-------2-(2)----2/-|-/3-3----\2------|-----------------|
|---------------2-----|-----1-------------|--2-2-----1------|-----------------|
|---------------------|-2-2---------------|--3-3-----2------|---------2-2-4-4-|
|---------------------|-------------------|--3-3-----2------|-0-0-3-3---------|


                      Guitar Break
      B7               E
  E E E E +E  E E E    E Q.      Q      E E
|---------------x-x-||-x-7b7.5---7b7.5--x-x-|
|---------------x-x-||-x-8b8.5---8b8.5--x-x-|
|---------------x-x-||-x----------------x-x-|
|-2-0---------------||----------------------|
|-----2-2-(2)-x-----||----------------------|
|-------2-(2)-------||----------------------|


  E Q.      Q      E E   E Q.      Q      E E
|-x-7b7.5---7b7.5--x-x-|-x-7b7.5---7b7.5----9--|
|-x-8b8.5---8b8.5--x-x-|-x-8b8.5---8b8.5--8----|
|-x----------------x-x-|-x---------------------|
|----------------------|-----------------------|
|----------------------|-----------------------|
|----------------------|-----------------------|


                      A
  +E  E E E E E E E    E  E  E  E  E  E  E  E    E  E  E  E  E  E  E  E
|-(9)---7---7-7---7S|=12-12-12-12-12-12-12-12-|-12-12-12-12-12-12-12-12-|
|-----8---8-----8---|-------------------------|-------------------------|
|-------------------|-------------------------|-------------------------|
|-------------------|-------------------------|-------------------------|
|-------------------|-------------------------|-------------------------|
|-------------------|-------------------------|-------------------------|


     E                                       B7                 C7     B7
          |-3--| |-3-|        |-3-|
   E E Q  E  E E E E E    E E E E E Q  E E   E E E E +E  Q  E   E Q  E E Q  E
|-12S0-5--3------------|----0--------------|-------------2----|---3------2----|
|-----------\5p3-5p3-0-|-------------------|------------------|---------------|
|----------------------|-/4---2p0---2--x-x-|-------2-(2)----2-|-3----3-2----x-|
|----------------------|----------2----x-x-|------------------|-x------x----x-|
|----------------------|-------------------|-2-2-2------------|-3------2------|
|----------------------|-------------------|------------------|---------------|


                                       Verse
  E                       B7            E
                                        PM------------|
  E E E E E E E E   E E E E +E  E E E   E E E E E E E E
|-----------------|-----------------x-|-----------------|
|-----------------|-----------------x-|-----------------|
|-----------------|-------2-(2)-2-2-x-|-----------------|
|-----------------|-2-0---------x-x---|-----------------|
|---------2-2-4-4-|-----2-------2-2---|-2-2-4-4-2-2-4-4-|
|-0-0-3-3---------|-------------------|-0-0-0-0-0-0-0-0-|


  PM------------------------------------------------|
  E E E E E E E E   E E E E E E E E   E E E E E E E E
|-----------------|-----------------|-----------------|
|-----------------|-----------------|-----------------|
|-----------------|-----------------|-----------------|
|-----------------|-2-2-----2-2-----|---------2-------|
|-2-2-4-4-2-2-4-4-|-2-2-4-4-2-2-4-4-|-2-2-4-4-2-2-4-4-|
|-0-0-0-0-0-0-0-0-|-0-0-0-0-0-0-0-0-|-0-0-0-0-0-0-0-0-|


  A                                   E
  PM----------------------------|     PM------------------------------|
  E E E E E E E E   E E E E E E E E   E E E E E E E E   E E E E E E E E
|-----------------|-----------------|-----------------|------------------|
|-----------------|-----------------|-----------------|------------------|
|-----------------|-2-------------0-|-----------------|------------------|
|-2-2-4-4-2-2-4-4-|---2-4-4-2-2-4-0-|-----------------|-2----------------|
|-0-0-0-0-0-0-0-0-|---0-0-0-0-0-0-0-|-2-2-4-4-2-2-4-4-|-2-2-4-4-2-2-4-4--|
|-----------------|-----------------|-0-0-0-0-0-0-0-0-|-0-0-0-0-0-0-0-0--|


  B7                 C7     B7       E                       B7
  E E E E +E  Q  E   E Q  E E Q  E   E E E E E E E E   E E E E +E  E E E
|-------------2----|----------2----|-----------------|--------------------|
|------------------|---------------|-----------------|--------------------|
|-------2-(2)----2-|-3-3--3-2----x-|-----------------|-------2-(2)-2-2-x--|
|------------------|-x------x----x-|-----------------|-2-0---------x-x-x--|
|-2-2-2------------|-3------2------|---------2-2-4-4-|-----2-------2-2-x--|
|------------------|-3-------------|-0-0-3-3---------|--------------------|


  E
  PM------------------------------------------------------------------|
  E E E E E E E E   E E E E E E E E   E E E E E E E E   E E E E E E E E
|-----------------|-----------------|-----------------|------------------|
|-----------------|-----------------|-----------------|------------------|
|-----------------|-----------------|-----------------|------------------|
|-----------------|-----------------|-----------------|------------------|
|-2-2-4-4-2-2-4-4-|-2-2-4-4-2-2-4-4-|-2-2-4-4-2-2-4-4-|-2-2-4-4-2-2-4-4--|
|-0-0-0-0-0-0-0-0-|-0-0-0-0-0-0-0-0-|-0-0-0-0-0-0-0-0-|-0-0-0-0-0-0-0-0--|


  A                                   E
  PM------------------------------------------------------------------|
  E E E E E E E E   E E E E E E E E   E E E E E E E E   E E E E E E E E
|-----------------|-----------------|-----------------|------------------|
|-----------------|-----------------|-----------------|------------------|
|-----------------|-2---------------|-----------------|------------------|
|-2-2-4-4-2-2-4-4-|---2-4-4-2-2-4-4-|-----------------|-2----------------|
|-0-0-0-0-0-0-0-0-|---0-0-0-0-0-0-0-|-2-2-4-4-2-2-4-4-|---2-4-4-2-2-4-4--|
|-----------------|-----------------|-0-0-0-0-0-0-0-0-|---0-0-0-0-0-0-0--|


  B7                 C7   B7           E                       B7
  E E E E +E  Q  E   E Q  E +E  Q  E   E E E E E E E E   E E E E +E  E E E
|-------------2----|---3--2-(2)-2----|-----------------|-------------0-2p0--|
|------------------|------x-----x----|-----------------|--------------------|
|-------2-(2)----2-|-3----2-(2)-2----|-----------------|---0---2-(2)--------|
|------------------|-x----x-----x--x-|-----------------|-2-0---x-(x)--------|
|-2-2-2------------|-3----2-(2)-2--2-|---------2-2-4-4-|-----2-2-(2)--------|
|------------------|-----------------|-0-0-3-3---------|--------------------|


 Breakdown
  E
   H    +E  E E E    H    +E  E E E
|-/4----(4)-0---0-|-/4----(4)-0-----|
|-------------2---|-------------2-0-|
|-----------------|-----------------|
|-----------------|-----------------|
|-----------------|-----------------|
|-----------------|-----------------|


                                  A
   H    a H      H     Q.   a E   +E  E E E E E Q
|-/4----4S2----|-0----/4----4S2-|-(2)---2-----2----|
|--------------|----------------|------------------|
|--------------|----------------|------------------|
|--------------|----------------|------------------|
|--------------|----------------|------------------|
|--------------|----------------|------------------|


                  E                                 B7
  E E E E Q  Q    E E E E E E E E   Q  E E Q  E E   Q  E E E E E E
|-2-----2S4--2--|-0-----0---0---2-|------4------7-|------7---7---5--|
|---------------|-----------------|---------------|-----------------|
|---------------|-----------------|---------------|-----------------|
|---------------|-----------------|---------------|-----------------|
|---------------|-----------------|---------------|-----------------|
|---------------|-----------------|---------------|-----------------|


  C7      B7        E
                             |-3-| |-3-| |-3-|   |3|
  E E E E E E E E   +Q       E E E Q   E E E E   Q E E E E E E E
|---5---5---5---3-|-(3)b3.5------------0-------|------------------|
|-----------------|----------5p3p0-----0-------|------------------|
|-----------------|----------------2b4---2p0---|-2p0--------------|
|-----------------|--------------------------2-|-----2p0----------|
|-----------------|----------------------------|---------2-1-0----|
|-----------------|----------------------------|---------------3\-|


 Bridge
  E
  E E E E E E E E   E E E E +E  E E E   E E E E E E E E   E E E E +Q   E E
|-----------------|-------------------|-----------------|-------------------|
|-----------------|-------------------|-----------------|-------------------|
|-----------------|-------------------|-----------------|-------------------|
|-----2-----2-----|-2-----2-(2)-2-0h2-|-----2-----2-----|-2-----2-(2)--2-2--|
|-----------------|-------------------|-----------------|-------------------|
|-0-0---0-0---0-0-|---0-0-------------|-0-0---0-0---0-0-|---0-0-------------|


    A
    E E E E E E E E 10x E E E E E Q  E   Q  E E +E  E E E   Q  Q  E Q  E
||-------------------||-----3---2-0----|-3--2-0-(0)-x-----|----3--2-0----|
||o-----------------o||-----2---2-0----|-2--2-0-(0)-x-----|----2--2-0----|
||------2---2p0---2--||----------------|----------------x-|------------2-|
||-------------------||--------------2-|----------------x-|--------------|
||o-0-0---0-----0---o||-0-0------------|--------------x-x-|-0------------|
||-------------------||----------------|------------------|--------------|


  Q  E E +E  E E E   Q  Q  E E E E   Q  E E +E  E E E   Q  Q  E Q  E
|-3--2-0-(0)-x-----|----3--2-0---x-|-3--2-0-(0)-x-x-x-|----3--2-5-----|
|-2--2-0-(0)-x-x-0-|----2--2-0---x-|-2--2-0-(0)-x-x-x-|----2--2-2--2--|
|------------x-x-0-|-2---------2-2-|------------------|-2--2--2----2--|
|--------------x---|---------------|------------------|---------------|
|------------------|---------------|------------------|---------------|
|------------------|---------------|------------------|---------------|


  E E E E E E E E   E E E E E E E E   E E E E +E  +Q    E
|-3-----5---5-5-5-|-3-3-3-----5-----|-3-3---5-(5)-(5)/----|
|-2-2-2-2-2-2-2-2-|-2-2-2-2-2-2-2-2-|-2-2-2-2-(2)---------|
|-2-2-2-2-2-2-2-2-|-2-2-2-2-2-2-2-2-|-2-2-2-2-(2)---------|
|-----------------|-----------------|---------------------|
|-----------------|-----------------|---------------------|
|-----------------|-----------------|---------------------|


   E E  E  E E Q.      E  Q   E  +E   E E  E
|-17---17-17---x----|-17-17--17-(17)-17---17-|
|-14---14-14---x----|-14-14--14-(14)-14---14-|
|-16---16-16--------|-16-16--16-(16)-16---16-|
|-------------------|------------------------|
|-------------------|------------------------|
|-------------------|------------------------|


   +Q    E E  E  E E E    E  Q   E  +Q   E  E
|-(17)--17---17-17---x-|-17-17--17-(17)----17--|
|-(14)--14---14-14---x-|-14-14--14-(14)----14--|
|-(16)--16---16-16-----|-16-16--16-(16)----16--|
|----------------------|-----------------------|
|----------------------|-----------------------|
|----------------------|-----------------------|


   +E  E  E E  E  E E E    E  Q   E  +E  E Q
|-(17)-x-17---17-17---x-|-17-17--17-(17)-x----|
|-(14)---14---14-14---x-|-14-14--14-(14)-0-0--|
|-(16)---16---16-16-----|-16-16--16-(16)------|
|-----------------------|---------------------|
|-----------------------|---------------------|
|-----------------------|---------------------|


  B7
  Q  Q  +E  Q.     Q.   E +E  E E E
|-----------2----|------2-(2)--------|
|----------------|------------x------|
|----2--(2)------|-2------------2p0--|
|-1--------------|-------------------|
|-2--------------|-------------------|
|----------------|-------------------|


  E
  E E E E E E E E   E E E E E E E E   E E E E E E E E   E E E E E E E E
|-----------------|-----------------|-----------------|------------------|
|---------------x-|---------------x-|-----------------|---x---x-------x--|
|---------------x-|---------------x-|-----------------|---x---x-------x--|
|---------------x-|-2-2-----------x-|-----------------|-2-2---x-------x--|
|---------2-2-4-4-|-----4-4-2-2-4-4-|---------2-2-4-4-|-----4-4-2-2-4-4--|
|-0-0-3-3---------|-----------------|-0-0-3-3---------|------------------|


  A                                   E
  E E E E E E E E   E E E E E E E E   E E E E E E E E   E E E E E E E E
|-----------------|-----------------|-----------------|------------------|
|---x---x---x---x-|---x---x---x---x-|-----x---------x-|---x--------------|
|---x---x---x---x-|-2-2---x---x---x-|-----x---------x-|---x--------------|
|---x---x-2-2-4-4-|-------x-2-2-4-4-|-----x---------x-|-2-2--------------|
|-0-0-4-4---------|-----3-3---------|-----x---2-2-4-4-|-----4-4-2-2-4-4--|
|-----------------|-----------------|-0-0-3-3---------|------------------|


  B7                                  E                       B7
  E E E E E E E E   E E E E E E E E   E E E E E E E E   E E E E +E   Q  E
|-----------------|-----------------|-----------------|--------------------||
|-----------------|-----------------|-----------------|--------------------||
|-----------------|-----------------|-----------------|-------2-(2)/-------||
|-----------------|-----------------|-----------------|-2-0----------------||
|---------0-0-1-1-|-2-2-0-0---------|---------2-2-4-4-|-----2--------0--x--||
|-3-3-4-4---------|---------4-4-2-2-|-0-0-3-3---------|--------------------||


 Out-Chorus "Hideaway"
  Q=128(8=s8)
  E7
   |--3--|  |--3--|            |--3--|  |--3--|                        |-3--|
   E  E  E  E  E  E  Q   Q     E  E  E  E  E  E  Q   Q     E E E E E E E  E E
|-12-12-12-12-12-12-12\-----|-12-12-12-12-12-12-12\-----|-12-9S7-4S2-0-2S=4S2-|
|--9--9--9--9--9--9--9\-----|--9--9--9--9--9--9--9\-----|--9-------2-0---/4S2-|
|-11-11-11-11-11-11-11\-----|-11-11-11-11-11-11-11\-----|-11-9S7-4S2-0-2------|
|-12-12-12-12-12-12-12\-----|-12-12-12-12-12-12-12\-----|-12------------------|
|---------------------------|---------------------------|---------------------|
|---------------------------|---------------------------|---------------------|


                      A7
              |-3-|                         |-3-|
  E E E E E E E E E   E E E E E E E E   E E E E E  E E S S S S
|-0-4S2-0-2S4-------|-----------------|---0-----0-/4-2-0h2p0----|
|-0-----0-----------|-----------------|-----0h2--------0-----2--|
|-0-4S2-0-2S4-------|-----------------|-------------------------|
|-------------------|-2-2-4-0-2-2-4-0-|-2-----------------------|
|-------------------|-0-0-0-0-0-0-0-0-|-0-----------------------|
|-------------0-3-4-|-----------------|-------------------------|


  E7                                   B7
                               |-3-|
  E E E E E E Q    E E E E E E E E E   a E E E E  E E S S S S
|-0---------0-2--|-0---------0-----0-|-0h2-2-2-0-/4-0-0h2p0----|
|-0---------0-2--|-0---------0-0S2---|----------------------2--|
|-----------0-2--|-------------------|-------------------------|
|----------------|-------------------|-------------------------|
|---2-4-4-2------|---2-4-4-2---------|-------------------------|
|---0-0-0-0------|---0-0-0-0---------|-------------------------|


  A7
  |-3-| |-3-| |-3-|  |-3--|
  E E E E E E E E E +E  E E
|-----0-----0-----0-(0)-----|
|-0S2---0S2---0S2-------0---|
|-------------------------2-|
|---------------------------|
|---------------------------|
|---------------------------|


  E7                                 B7
                   |-3-|                     |-3-|
  E    E  E E E E  E E E   a  E  E E E +E  E E E E
|------0------0----------|-----------------0-----0--|
|------0----3-3-3--------|---------0---------0S2----|
|-0tr1---/4---4---\2-0---|-0h=1------2-(2)----------|
|----------------------2-|-2-(2)-2------------------|
|------------------------|--------------------------|
|------------------------|--------------------------|


  E7
                                                                   |-3-|
  W             +W              +W              +H        +E     E E E E
|-------------|---------------|---------------|--------------------------|
|-0tr2--------|-(0tr2)--------|-(0tr2)--------|-(0tr2)----(0tr2)-0-------|
|-------------|---------------|---------------|------------------0-------|
|-------------|---------------|---------------|------------------0-------|
|-------------|---------------|---------------|--------------------------|
|-------------|---------------|---------------|--------------------0-3-4-|


  A7                                       E7
                        |-3-|      |-3-|
  E E E E E E E E   E E E E E Q  a E E E   E E E E E E Q
|-----------------|---0-----0S4--4S2-0---|-0---------0-2-|
|-----------------|-----0S2------------2-|-0---------0-2-|
|-----------------|----------------------|-----------0-2-|
|-2-2-4-0-2-2-4-0-|-2--------------------|---------------|
|-0-0-0-0-0-0-0-0-|-0--------------------|---2-4-4-2-----|
|-----------------|----------------------|---0-0-0-0-----|


                      B7                     A7
              |-3-|                          |-3-| |-3-| |-3-|  |-3--|
  E E E E E E E E E    E E E E E E S S S S   E E E E E E E E E +E  E E
|-0---------0-----0-|-/2-2-2-0S4-0-0h2p0---|-----0-----0-----0-(0)------|
|-0-----------0S2---|--------------------2-|-0S2---0S2---0S2-------0----|
|-------------------|----------------------|-------------------------2--|
|-------------------|----------------------|----------------------------|
|---2-4-4-2---------|----------------------|----------------------------|
|---0-0-0-0---------|----------------------|----------------------------|


    E7                                B7
          |-3-|     |-3-|
  a  E  E E E E E E E E E   a  E  E E E +E  Q   E
|---------------0---------|---------3-2-(2)-------|
|-0-(0)-0-----3-3-3-------|---------3-2-(2)-2/----|
|-0h=1--0-2S4-----4S2-0---|-0h=1----3-2-(2)-2/----|
|-----------------------2-|-2-(2)-x---------------|
|-------------------------|-----------------------|
|-------------------------|-----------------------|


 Guitar Solo
  E7
    |--3--|   |--3--|   |--3--|   |--3--|
    E  E  E   E  E  E   E  E  E   E  E  E
|-----12-12-----12-12-----12-12-----12-12-|
|-/12-12-12-/12-12-12-/12-12-12-/12-12-12-|
|-/13-------/13-------/13-------/13-------|
|-----------------------------------------|
|-----------------------------------------|
|-----------------------------------------|


    |---3---|             |--3--|   |--3--|   |--3--|   |--3--|
    Q   Q   Q  E E Q      E  E  E   E  E  E   E  E  E   E  E  E
|----------------x----|-----12-12-----12-12-----12-12-----12-12-|
|-/12-/12-/12------0--|-/12-12-12-/12-12-12-/12-12-10-/12-12-12-|
|-/13-/13-/13------0--|-/13-------/13-------/13-------/13-------|
|-------------14---0--|-----------------------------------------|
|---------------------|-----------------------------------------|
|---------------------|-----------------------------------------|


  |--3--|  |--3--|  |--3--|  |--3--|
  E  E  E  E  E  E  E  E  E  E  E  E
|---12-12-12-12-12-12-12-12-----------|
|---15-15-15-15-15-15-15-15-12--------|
|------------------------------15-14--|
|-------------------------------------|
|-------------------------------------|
|-------------------------------------|


  A7
   ~~
       |--3--|  |-3--|          |-3--|  |---3----|  |---3----|  |-3--|
   Q   E  E  E  E  E E  E  E    E  E E  E     E  E  E  E     E  E  E E
|----------------------------|------------------12---------------------|
|----------------------------|---------------12----15-------15---------|
|-12-------------------12-12-|---------14b16----------14b16----14-12-9-|
|-----14p12----12h14---------|-14p12-9---------------------------------|
|-----------14---------------|-----------------------------------------|
|--------------------0-------|-----------------------------------------|


  E7
   ~~
                         |--3--|
   Q   E a a  E S  E.    E  E  E
|--------------------------12-----|
|-----------------------12----12--|
|-12-----x--------14b16-----------|
|-----14---x----------------------|
|------------14-------------------|
|---------------------------------|


   |--3--|      |--3---|       |---3----|
   E  E  E     +E   E  E  E E  E     E  E
|---------------------------x----------12-|
|-15p12---------------------x-------12----|
|-------14b16-(14)-14----12---14b16-------|
|---------------------14------------------|
|-----------------------------------------|
|-----------------------------------------|


  B7                                    A7
   |--3--|                 |---3----|             |--3--|             |--3--|
   E  E  E  S  a  E  E  E  E..   E  E    E  E     E  E  E     +E   E  E  E  E
|-------14-12h13p12----------------12-|----------12---------------------------|
|-15-12-------------15-12-------12----|-12-15b17----15------------15----------|
|-------------------------14b16-------|----------------14b16-(14)----14-12----|
|-------------------------------------|------------------------------------14-|
|-------------------------------------|---------------------------------------|
|-------------------------------------|---------------------------------------|


  E                                       B7              E7
        |---3----|       |-3-|                    |-3-|
   E E  E     E  E  E  E E E E   a  Q   E E +E  E E E E   H.        +E     E
|------------12-12-------------|--------3-2-(2)-0-----0-|------------------0--|
|------------12-12-15----------|--------3-2-(2)---0S2---|-0tr2------(0tr2)-0--|
|-12-0-14b16----------\2-0---2-|-0h=1---3-2-(2)---------|---------------------|
|--------------------------2---|-2-(2)------------------|---------------------|
|------------------------------|------------------------|---------------------|
|------------------------------|------------------------|---------------------|


    |-3-|   |-3-|   |-3-|  |-3--|                                   |-3-|
  a E E E a E E E a E E E +E  E E   a E E E E E E E E   E E E E E E E E E
|-------0-------0-------0-(0)-----|---------------2---|-0---------0-----0--|
|-0h1h2---0h1h2---0h1h2-------0---|---------------2---|-0---------0-0S2----|
|-------------------------------2-|-0h1-----------2-2-|--------------------|
|---------------------------------|-------------------|--------------------|
|---------------------------------|-----2-2-2-2-------|---2-4-4-2----------|
|---------------------------------|-----0-3-3-0-0-----|---0-0-0-0----------|


  A7
                         |-3-|   |-3-|   |-3-|  |-3--|
  H.        +E     E   a E E E a E E E a E E E +E  E E
|------------------0-|-------0-------0-------0-(0)-----|
|-0tr2------(0tr2)-0-|-0h1h2---0h1h2---0h1h2-------0---|
|--------------------|-------------------------------2-|
|--------------------|---------------------------------|
|--------------------|---------------------------------|
|--------------------|---------------------------------|


  E
                   |-3-|
  E    E  E E E E  E E E
|------0------0----------|
|------0----3-3-3--------|
|-0tr1---/4-------\2-0---|
|----------------------2-|
|------------------------|
|------------------------|


                          B7                      A7
                  |-3-|                           |-3-| |-3-| |-3-| |-3-|
  a E E E E a E E E E E    E E E E  E E S S S S   E E E E E E E E E E E E
|-------2-------0-----0-|-/2-2-2-0-/4-0-0h2p0---|-----0-----0-----0-----x--|
|-------2-------0-0S2---|---------------------2-|-0S2---0S2---0S2---0S2-x--|
|-0h1-2-2---0h1---------|-----------------------|-----------------------x--|
|---------2-------------|-----------------------|--------------------------|
|-----------------------|-----------------------|--------------------------|
|-----------------------|-----------------------|--------------------------|


 Outro
  N.C.                    D#E#7
                              TP
  E E E  E  E E E E   E E E E H      +H     +E  E  Q
|---9-9\-7-/4-4-3-2-|-0------------:------------8\----*|
|---9-9\-7-/3-3-2-1-|-0---7-8-8----:-(8)----(8)-8\----*|
|-----9\---/4-4-3-2-|-1---6-7-7----:-(7)----(7)-7\----*|
|-------------------|-----5-6-6----:-(6)----(6)-6\----*|
|-------------------|---------7----:-(7)----(7)-------*|
|-0-----------------|---0----------:------------------*|



Duration Legend
---------------
W - whole; H - half; Q - quarter; E - 8th; S - 16th; T - 32nd; X - 64th; a - acciaccatura
+ - note tied to previous; . - note dotted; .. - note double dotted
Uncapitalized letters represent notes that are staccato (1/2 duration)
Irregular groupings are notated above the duration line
Duration letters will always appear directly above the note/fret number it represents the
duration for.  Duration letters with no fret number below them represent rests.  Multi-
bar rests are notated in the form Wxn, where n is the number of bars to rest for.  Low
melody durations appear below the staff

Tablature Legend
----------------
 h   - hammer-on
 p   - pull-off
 b   - bend
 pb  - pre-bend
 r   - bend release (if no number after the r, then release immediately)
 /\  - slide into or out of (from/to "nowhere")
 s   - legato slide
 S   - shift slide
<n> - natural harmonic
[n]  - artificial harmonic
n(n) - tapped harmonic
 ~   - vibrato
 tr  - trill
 T   - tap
 TP  - trem. picking
 PM  - palm muting
\n/  - tremolo bar dip; n = amount to dip
 \n  - tremolo bar down
 n/  - tremolo bar up
/n\  - tremolo bar inverted dip
 =   - hold bend; also acts as connecting device for hammers/pulls
 <> - volume swell (louder/softer)
 x   - on rhythm slash represents muted slash
 o   - on rhythm slash represents single note slash

Misc Legend
-----------
 |  - bar
||  - double bar
||o - repeat start
o|| - repeat end
*|  - double bar (ending)
 :  - bar (freetime)
 $  - Segno
 &  - Coda
Tempo markers - <E/E./Q/Q./H/H.> = BPM(8/16=s8/s16), where s8 = swing 8ths, s16 = swing 16ths

comments
We did not receive enough feedback on this tab! Please rate:
print report bad tab
1 2 3 4 5
1 comment total.
0 reply
i_griff wrote on May 20 2011, 08:50 am

Excellent tab. Note for note perfect as far as I can tell. Great work :-)

I want to post or [tab]
guest
You may want to rate the tab now too:
select rating
Please do not post tabs as comments. Select "correction" instead!