Oops, an error
Loading. Please wait.

I Wanna Testify Tab

ver1
ver1

Whole song

Interactive

More versions @911Tabs.com
964 views 3 this week
no commentswrite comment
1 2 3 4 5
please rate
Autoscroll
+/-
esc
set tempo
stop
Contributor
Tuning
D# G# C# F# A# D#
Hey! There's an official Ultimate Guitar app which is ideal
for learning songs when you're away from computer. Get the app
WARNING: You are trying to view
                                    content from Ultimate-Guitar.com
                                    in an unauthorized application,
                                    which is prohibited.

                                    Please use an official Ultimate
                                    Guitar Tabs application for iPhone,
                                    iPad or Android to access legitimate
                                    chords, guitar, bass, and drum tabs
                                    from Ultimate-Guitar.com database.

                                    Type "ultimate guitar tabs" in Apple
                                    App Store's or Android Market's
                                    search to find the application.
#----------------------------------PLEASE NOTE---------------------------------#
#This file is the author's own work and represents their interpretation of the #
#song. You may only use this file for private study, scholarship, or research. #
#------------------------------------------------------------------------------#

I WANNA TESTIFY
As recorded by Stevie Ray Vaughan
(From the 1983 Album TEXAS FLOOD)

Transcribed by prusche
        

Words and Music by George Clinton and Deron Taylor

Gtr I (Eb Ab Db Gb Bb Eb) - 'Untitled'

 Intro
  Q=204
  N.C.                   E7+9         N.C.                  E7+9
 4/4
  Gtr I
  E Q  E E E E E   E E E E E Q  E   E E E E E E E E   E E E E E Q  E
|----------------|----------------|-----------------|----------------|
|----------------|-------8---8----|-8-0-------------|-------8---8----|
|----------------|-------7---7----|-7-0-------------|-------7---7----|
|----------------|-------6---6----|-6-0-------------|-------6---6----|
|--------5-5-6-6-|-7-7---7---7----|-7-------5-5-6-6-|-7-7---7---7----|
|-5s7--7---------|-----0--------0-|---5s7-7---------|-----0--------0-|


    N.C.                  E7+9         N.C.                  E7+9
  E E E E E E E E   E E E E E Q  E   E E E E E E E E   E E E E E Q  E
|-----------------|----------------|-----------------|----------------|
|-8---------------|-------8---8----|-8---------------|-------8---8----|
|-7---------------|-------7---7----|-7---------------|-------7---7----|
|-6---------------|-------6---6----|-6---------------|-------6---6----|
|-7-------5-5-6-6-|-7-7---7---7----|-7-------5-5-6-6-|-7-7---7---7----|
|---5s7-7---------|-----0--------0-|---5s7-7---------|-----0--------0-|


    N.C.                  E7+9         N.C.                  E7+9
  E E E E E E E E   E E E E E Q  E   E E E E E E E E   E E E E E Q  E
|-----------------|----------------|-----------------|----------------|
|-8---------------|-------8---8----|-8---------------|-------8---8----|
|-7---------------|-------7---7----|-7---------------|-------7---7----|
|-6---------------|-------6---6----|-6---------------|-------6---6----|
|-7-------5-5-6-6-|-7-7---7---7----|-7-------5-5-6-6-|-7-7---7---7----|
|---5s7-7---------|-----0--------0-|---5s7-7---------|-----0--------0-|


    N.C.                  E7+9         N.C.
  E E E E E E E E   E E E E E Q  E   E E E E E E E E
|-----------------|----------------|-----------------|
|-8---------------|-------8---8----|-8---------------|
|-7---------------|-------7---7----|-7---------------|
|-6---------------|-------6---6----|-6---------------|
|-7-------5-5-6-6-|-7-7---7---7----|-7-------5-5-6-6-|
|---5s7-7---------|-----0--------0-|---5s7-7---------|


                    B7
                        ~~~~~~~
  E Q  E +E  Q  E   E E Q  +E  E E E
|-----------------|------------------||
|-----------------|------------------||
|-----------------|-----8--(8)-8---0-||
|-----------------|-----7--(7)-7-0---||
|-7---------------|------------------||
|---4--5-(5)-6--6-|-7----------------||


 Guitar Solo 1
  N.C.(E)
                              ~~~~
   |-----3-----|
   E      +E   E  E  E       +Q    E  E
|---------------------------------------|
|---------------------------------------|
|-14pb16r(14)p12----12b12.5-(12)--------|
|----------------14---------------14p12-|
|---------------------------------------|
|---------------------------------------|


                                                        ~~~~~~
  E  E      E   E  E  E  S        +S    E      S  S  E  Q   S  S  E  E  E
|-----------------12------------------------|-----------------------------|
|--------------12----15----------------15---|-----------------------------|
|-0-14b16==14r----------14b15.5==(14)-(14)r-|-14p12----12-----------------|
|-0-----------------------------------------|-------14-----14-12----12-14-|
|-------------------------------------------|--------------------14-------|
|-------------------------------------------|-----------------------------|


  E  E      +E    E  E  E  E  E        +Q     E  E  E  E  S      +S    E
|-------------------12----12--------|--------12----12--------------------|
|----------------12----12----15b17==|=(15)r-----12----15--------------15-|
|---14b16==(14)r--------------------|--------------------14b16==(14)r----|
|-0---------------------------------|------------------------------------|
|-----------------------------------|------------------------------------|
|-----------------------------------|------------------------------------|


   S  S  E  E  E      +E    E  E  E
|-----------------------------12-15b17===|
|--------------------------15------------|
|-14p12----12-14b16==(14)r---------------|
|-------14-------------------------------|
|----------------------------------------|
|----------------------------------------|


  (B)
                 ~~~~~
   E   E        +Q     E  E  E     E    E  E  S      +S    E  E  E  E  E
|-15r-15b15.5==(15)r--12-------------|-12--------------------------------|
|------------------------15-------12-|----15--------------15-------------|
|---------------------------14b16----|-------14b16==(14)r----14-12----12-|
|------------------------------------|-----------------------------14----|
|------------------------------------|-----------------------------------|
|------------------------------------|-----------------------------------|


  (E)
                                        ~~~~~
   E      +E    E  E      E   E        +Q
|--------------12-15b17==15r-15b15.5==(15)r--|
|--------------------------------------------|
|-14b16==(14)r-------------------------------|
|--------------------------------------------|
|--------------------------------------------|
|--------------------------------------------|


   E  E  S      +S    E  S  S  E  E  E
|-12---------------------------------------|
|----15--------------15--------------------|
|-------14b16==(14)r----14p12----12-14b16==|
|-----------------------------14-----------|
|------------------------------------------|
|------------------------------------------|


  (A)
   +E    Q   E  E  E      +Q      a  +E   E  E  E  E  E  E  E
|-----------12-----------------|------------------------------|
|-------12-----12-15b17==(15)--|-15r(15)-12-------------------|
|-(14)r------------------------|------------15-14-13----12-14-|
|------------------------------|---------------------14-------|
|------------------------------|------------------------------|
|------------------------------|------------------------------|


  (E)
                     ~~~~~~~
   E      +E   E  E  Q        S  S  E
|-------------------------------------|
|-------------------------------------|
|-14pb16r(14)-12-14-12b12.5-----------|
|----------------------------14p12----|
|----------------------------------14-|
|-------------------------------------|


  (B)                          (E)
                        PM|
   E  E  E     E  E  E  E  E    E  E  E  E  +E   E  E  E
|----------------------------|-----------x-------x-------|
|----------------------------|-----------x-------x-------|
|----------------------------|----------12-(12)-12-------|
|-12-14-12b13----------------|-12-14---------------14p12-|
|-------------14-13p12-------|---------------------------|
|----------------------15-12-|-------12------------------|


                          Guitar Solo II
        B9        N.C.     (E)
                                    ~~~~~~~~~~~~~~
    Q    Q   +E   E E E     E      +Q.    +H
|-------14--(14)\-------||-17b19==(17)---(17)----|
|-------14--(14)\-------||-----------------------|
|-<12>--14--(14)\-0-0---||-----------------------|
|-<12>--13--(13)\-0-0-0-||-----------------------|
|--14-----------------0-||-----------------------|
|-----------------------||-----------------------|


 ~~~~~~~             ~~~~~      ~~
   +Q     E  E      +E    E  E  E
|-(17)r--15-17b19==(17)r-15-17----|
|------------------------------17-|
|---------------------------------|
|---------------------------------|
|---------------------------------|
|---------------------------------|


    ~~~~
           |--3--|                              |-3-|
   +Q    E S  S  S  E  E  E  E        +Q    a  +Q   E      +E    Q     E
|-------15-x----------12-----------|-------------------------------------|
|-(17)-------17p15s12----12-15b17==|=(15)--15r(15)-15-----(15)--15---(15)|
|----------------------------------|---------------14b16==(14)-(14)---14r|
|----------------------------------|-------------------------------------|
|----------------------------------|-------------------------------------|
|----------------------------------|-------------------------------------|


   +E   E  E  S        +S   +E    E      +E   E
|---------------------------------------------------|
|------------15b16.5==(15)-(15)r--------------------|
|-(14)-12------------------------14pb15r(14)-12b13==|
|---------14----------------------------------------|
|---------------------------------------------------|
|---------------------------------------------------|


   +E    E      +E    E  E  E  E  E
|-----------------------12----12-15b17==|
|--------------------12----12-----------|
|-(12)r-14b16==(14)r--------------------|
|---------------------------------------|
|---------------------------------------|
|---------------------------------------|


  (B)
         ~~~
   +E    Q.    E  E  E     E    E  E  S       E. +E   E  E  E
|-(15)r-15----12-------------|-12-----------------------------|
|----------------15-------12-|----15-15-----(15)--------------|
|-------------------14b16----|-------14b16===14r(14)-12-------|
|----------------------------|--------------------------14-14-|
|----------------------------|--------------------------------|
|----------------------------|--------------------------------|


  (E)
   E  E  E  E  E       E  E  E   E  a  E  E  E  E  E  E  E
|------------------------12----|---------12----14----12----|
|-12----12-14-14b14.5-14-12----|---------12----14----12-14-|
|-12----12-14-14b15---14-12----|---------12----14----12-14-|
|-12-14---------------------14-|---12h14----14----14-------|
|----14------------------------|-0-------------------------|
|------------------------------|-0-------------------------|


         (A)
   a      +E   +E   E  E  E  E  S  S  E
|-14b15==(14)r(14)-12-------------------|
|-14b15==(14)r(14)-12-14----------------|
|-14b16==(14)r(14)-12-14----12----------|
|------------------------14----14p12----|
|------------------------------------14-|
|---------------------------------------|


                            (E)                         (B)
            ~~~~~~~
                                                                    |-3-|
   E  E  E  E  +Q    E  E    E     E  E  E  +E   Q  E   E E E E E E E E E
|-------------------------|----------12---------------|-------------------|
|-------------------------|-------12----15-(15)-------|-------------------|
|----------12-(12)--14p12-|-14b16---------------\2--0s|=2-0---------------|
|-12-14-14----------------|---------------------------|-----2-0-----------|
|-------------------------|---------------------------|---------2-1-0h1p0-|
|-------------------------|---------------------------|-------------------|


                                         Guitar Solo III
  (E)                     (B)             (E)
                          ~~~~~~~
  E E E E +E  E E E   E E Q  +E  E E E    E    +E       +Q   +H
|-------------------|------------0-0-0-||---------------------------|
|-------------------|------------0-0-0-||---------------------------|
|-------------------|------------0-0-0-||-2b3==(2)b3.5==(2)--(2)----|
|-----0-2-(2)-0h2-0-|-2p0----------0---||---------------------------|
|-------------------|-----2--(2)-------||---------------------------|
|-3p0---------------|------------------||---------------------------|


  +H     +Q.   +E    E E E      E    +Q      E  E
|------------------|-0-----------------------------|
|------------------|-0-----------------------------|
|-(2)----(2)r==(2)-|-0-2-2pb3.5-0tr1-(0tr1)--------|
|------------------|-------------------------2-(2)-|
|------------------|-------------------------------|
|------------------|----------------------------0--|


  +E  Q  E    +E   E E E
|-----0------------0----------|
|-----0--3b5==(3)r---0--------|
|--------------------0-2b3.5==|
|-(2)-------------------------|
|-----------------------------|
|-(0)-------------------------|


                     |-3-|
  +E   E E S    +S   E E E E E
|--------0-----------0h3p0-----|
|------0---3b4==(3)r-------3-0-|
|-(2)r-------------------------|
|------------------------------|
|------------------------------|
|------------------------------|


                    (B)
  E E E E E E E E   E E E E E E  S      +S    E
|-0---------------|-----7---7----------------(7)-|
|---3-----3---3---|---7---7---7-10b11==(10)r--7--|
|-----2s4---4---4s|=8----------------------------|
|-----------------|------------------------------|
|-----------------|------------------------------|
|-----------------|------------------------------|


  E E  S      +S   E E  S      +S   E E
|-7-7----------------7--------------7-7\-|
|-7-7-10b11==(10)r-7-7-10b11==(10)r-7-7\-|
|----------------------------------------|
|----------------------------------------|
|----------------------------------------|
|----------------------------------------|


  (E)
                                       ~~~
  E   E  E  E  E  E  E  E        +E    Q.    E  E  E     E
|---/12-12-12-12-12-12-15b17==|=(15)r-15----12--------------|
|---/12-12-12-12-12-12--------|----------------15-------12--|
|-----------------------------|-------------------14b16-----|
|-0---------------------------|-----------------------------|
|-0---------------------------|-----------------------------|
|-----------------------------|-----------------------------|


  (A)
                                               ~~~~~~~
   E  E  E     E  S  S  E  E  E    E     E  E  E  +E   E  E  E
|-------------------------------|------------------------------|
|-15-12-------15-------------14-|-14b15-12-14------------------|
|-------14b16----14p12----12-14-|-14b16-12-14-12-(12)----------|
|----------------------14-------|-------------14-(14)----12-14-|
|-------------------------------|---------------------14-------|
|-------------------------------|------------------------------|


  (E)
   E  a      +E   +E   E  E  E       S  S  E
|------------------------14------------------|
|----14b15==(14)r(14)----14-12b12.5----------|
|----14b16==(14)r(14)-12-14-12b13------------|
|-12--------------------------------14p12----|
|-12--------------------------------------14-|
|--------------------------------------------|


  (B)
   E  E  E  E  E  E       E  E
|------------------------------|
|-------12----14-12b12.5-------|
|-------12----14-12b13---------|
|-12h14----14------------14-12-|
|------------------------------|
|------------------------------|


  (E)                                  B9
   E  E  E  E  E  E       E  E    E  E  Q   +Q    E E
|------------------------------|-------14--(14)\------||
|-------12----14-12b12.5-------|-----x-14--(14)\------||
|-------12----14-12b13---------|-----x-14--(14)\--0-0-||
|-14-14----14------------14-12-|-----x-13--(13)\--0-0-||
|------------------------------|-14\--------------0---||
|-12-12----12------------12----|--------------------7-||


 Guitar Solo IV
  (E)
                                           ~~~~~~
  E E E E E E E E   E E E E E Q  E   E E E E +Q   E E
|-----------------|----------------|------------------|
|-----------------|----------------|------------------|
|-----------------|----------------|------------------|
|-----------------|----------------|-5-7-7-5-(5)------|
|-5-7---7---7---7-|---7---7-5-7--5-|--------------7-5-|
|-----0---0---0---|-0---0----------|----------------0-|


  E E    +Q      +Q    E E   E E S S E E E E E      +E   E Q  E E E E
|--------------------------|----------------------|--------------------|
|--------------------------|----------------------|--------------------|
|--------------------------|----------------------|--------------------|
|---7b8==(7)b9===(7)r--5-7-|---5-------------7b8==|=(7)r-7-5-----------|
|--------------------------|-7---7p5---5-7--------|-----------7-5-7----|
|-0------------------------|---------7-----0------|-----------------5s=|


  (B)                                  Em7
                ~~~~~~~~
  E E E E E E E E   +Q   E E E E E E     E   E   E  E  E  E  E  E
|-----------------|------------------|----------12----12-12----12-|
|-----------------|------------------|-----<12>-12----12-12----12-|
|---------------7-|-(7)--------------|-----<12>-12----12-12----12-|
|-----9-9-7-9-----|------9-9-7-9-9-7-|-----<12>----14-------14----|
|-----------------|------------------|----------------------------|
|-7-7-7-7-7-7-7---|------------------|-/12--12-----12-------12----|


                                     Bm7         Am7               A7+9
   +E   E      +E    E  E  E  E  E   E E  E E  E E E E   +E  E E E E E E E
|-(12)-----------------14-12-------|-----10---10-----8-|-(8)-8-----8-8-8---|
|-(12)-14b15==(14)r-12-14-12-------|-----10---10-----8-|-(8)-8-----8-8-8-0-|
|-(12)-14b16==(14)r-12-14-12-------|-------------------|-----------6-6-6-0-|
|----------------------------14\-x-|-9-9----9----7-7-7-|-(7)-7-7-7-------0-|
|----------------------------------|-------------------|-------------------|
|--------------------------------x-|-7-7----7----5-5---|-------5-5---------|


  Em7              Bm7                   Am7
  E E E E E Q  E   E E  E E  E  E  E E   E E E E E E E E
|----------------|-----10---10-10-10---|---------8-8-----|
|-----8-x-8-8----|-----10---10-10-10-0-|---------8-8-----|
|-----7-x-7-7----|-------------------0-|---------7-7-----|
|--------------7s|=9-9----9----------0-|-----------------|
|---------7-7----|---------------------|---7-7-----------|
|-0-0----------5s|=7-7----7------------|-0-0---0-----0-0-|


                    Main Theme
     B7              (E)   E7+9         N.C.(B)
     ~~~~~~~
  Q  Q  +E  E E E    E E E E E Q  E   E E E E E E E E
|-----------------||----------------|-----------------|
|-----------------||-------8---8----|-8---------------|
|----8--(8)-8-----||-------7---7----|-7---------------|
|----7--(7)-7-----||-------6---6----|-6---------------|
|---------------7-||-7-7---7---7----|-7-------5-5-6-6-|
|-0-----------0-x-||-----0--------0-|---5s7-7---------|


  (E)   E7+9         N.C.(B)         (E)   E7+9+5
  E E E E E Q  E   E E E E E E E E   E E E E +E  E E E
|----------------|-----------------|-------8-(8)-8---8-|
|-------8---8----|-8---------------|-------8-(8)-8---8-|
|-------7---7----|-7---------------|-------7-(7)-7---7-|
|-------6---6----|-6---------------|-------6-(6)-6---6-|
|-7-7---7---7----|-7-------5-5-6-6-|-7-7---7-(7)-7---7-|
|-----0--------0-|---5s7-7---------|-----0---------0---|


                      Bm7
  +E  E E E E E E E   E E  E E  E  E E  E    +E  E  E E  E  E  E E
|-(8)-------8---8---|-----10---10-10---10-|-(10)---10---10-10-10---|
|-(8)-------8---8-0-|-----10---10-10---10-|-(10)---10---10-10-10-0-|
|-(7)-------7---7-0-|---------------------|----------------------0-|
|-(6)-------6---6---|-9-9----9-------9----|------9----9----------0-|
|-(7)-------7---7---|---------------------|------------------------|
|-----0-0-0---0-----|-7-7----7-------7----|------7----7------------|


  (E) E7+9+5                            (A)
  E E E E E E E E   +E  E E E E E E E   E E E E E E E E
|-----8---8-8---8-|-(8)---8---8-8-----|----------------------|
|-----8---8-8---8-|-(8)---8---8-8-----|----------------------|
|-----7---7-7---7-|-(7)---7---7-7-x---|---------------5b5.5==|
|-----6---6-6---6-|-(6)---6---6-6-x-5s|=7-7-7-7-5-7-7--------|
|-----7---7-7---7-|-(7)---7---7-7-x---|----------------------|
|-0-0---0-----0---|-----0---0-------3s|=5-5-5-5--------------|


                        Em7               Bm7
   ~~~~
  +Q    E E +E  E E E   E E E E E E E E   E E  E E  E  E  E E
|---------------------|-----------------|-----10---10-10-10-0-|
|---------------------|-----8---8-8-0---|-----10---10-10-10-0-|
|-(5)r----------------|-----7---7-7-0---|-------------------0-|
|-------7-5-(5)-5-7---|-------------0-7s|=9-9----9------------|
|---------------------|-----------------|---------------------|
|-------------------0-|-0-0---0-------5s|=7-7----7------------|


  (E) E7+9+5   N.C.         B7
                            ~~~~~~~
  E E E E E Q  E    S S S S Q  +E  E  E E
|-----8---8-8----|----------------------0-||
|-----8---8-8----|----------------------0-||
|-----7---7-7----|-/8-8-8-8-8--(8)-8s13-0-||
|-----6---6-6----|----------7--(7)-7s12---||
|-7---7---7-7----|------------------------||
|---0---0------0-|------------------------||


 Guitar Solo V
  (E)
                              ~~~~~~~
   E     E  E  E        +E    Q.
|----------12---------------------------|
|-------12----15b15.5==(15)r-15pb17=====|
|-14b16---------------------------------|
|---------------------------------------|
|---------------------------------------|
|---------------------------------------|


    ~~~~~
   +Q     E  E  E     E  E  E
|--------12-------------12----|
|-(15)r-----15-------12----15-|
|--------------14b16----------|
|-----------------------------|
|-----------------------------|
|-----------------------------|


                                ~~~~~~~~~~
                                       |-3-|   |-3-|
    E      +Q.    +Q.    +E     H     +Q   E  +Q   E
|----------------------------|------------------------|
|-(15)----(15)---(15)---(15)-|------------------------|
|--14b16==(14)---(14)r==(14)-|-12----(12)-12-(12)-12h=|
|----------------------------|------------------------|
|----------------------------|------------------------|
|----------------------------|------------------------|


   |3-|  |3-|
   Q  E  Q  E E  E  E  E
|------------------------|
|------------------------|
|-14-12------------------|
|-------14-12---12-14-14-|
|-------------0----------|
|------------------------|


                               (B7)
   ~~~~~~~
   Q        E  E  E  E  E  E    E  E  E  E  E  E  E  E
|----------------------------|-------------------------|
|----------------------------|-------------------------|
|-12b12.5--------------------|----------------14-------|
|----------14-12-14-12-12----|-------13----------------|
|-------------------------13s|=14-14----14-14----14-14-|
|----------------------------|-------------------------|


                            (E)
   E  E  E  E  E  E  E  E    E  E  E  E  S S E E E
|----------14-------14----|-12-12-12-12-12-0-0-0-0-|
|-------------------------|-12-12-12-12-12-0-0-0-0-|
|-14----------------------|------------------------|
|-------------------------|------------------------|
|----14-14----14-14----14-|------------------------|
|-------------------------|------------------------|


          |-3-|  |-------9:8-------|
   S S E  E E E  S S S  S S S  S S S
|-12p0-0-12p0-0-12p0-0-12p0-0-12p0-0--|
|-12-0-0------------------------------|
|-------------------------------------|
|-------------------------------------|
|-------------------------------------|
|-------------------------------------|


  (A)
   |-------9:8-------|  |-------9:8--------|
   S S S  S S S  S S S  S S S  S S S  S S  S
|-12p0-0-12p0-0-12p0-0-12p0-0-12p0-0-12p0-15-|
|--------------------------------------------|
|--------------------------------------------|
|--------------------------------------------|
|--------------------------------------------|
|--------------------------------------------|


                               (E)
   +H.           +E    E        +H.       +E  a a  E
|-(15)b17=======(15)r-15b19==|=(15)r=====(15)-----15b17===|
|----------------------------|------------------x---------|
|----------------------------|----------------x-----------|
|----------------------------|----------------------------|
|----------------------------|----------------------------|
|----------------------------|----------------------------|


  (B)                                    (E)
            |--3--|
   +E    E  E  E  E  E     E  E  E        +E    E  E  E  S      +S    E    S  S  E
|-(15)r-15-12h14p12-------12-----------|-------12-12-------------------------------|
|-------------------15b16----12--------|-------12----15--------------15------------|
|-------------------------------14b16==|=(14)r----------14b16==(14)-(14)r-14p12----|
|--------------------------------------|----------------------------------------14-|
|--------------------------------------|-------------------------------------------|
|--------------------------------------|-------------------------------------------|


              (B)
   E  Q.       +E    E  E  S      +S
|-------------------12-12-12-----(12)--||
|-------------------12-12-12-----(12)--||
|-12-14b16====(14)r-------14b16==(14)r-||
|--------------------------------------||
|--------------------------------------||
|--------------------------------------||


 Guitar Solo VI
  (E)
   E  E  E     E  E  E     E  E    E     E  E  E     E  E  E  E
|-12-12----------12----------12-|----------12----------12-------|
|-12-12-------12----------12----|-12----12----------12----15p12-|
|-------14b16-------14b16-------|-14b16-------14b16-------------|
|-------------------------------|-------------------------------|
|-------------------------------|-------------------------------|
|-------------------------------|-------------------------------|


                      ~~~~~~~
   S      +S    E  E  E  +Q    E  E
|--------------12-------------------|
|--------------12-------------------|
|-14b16==(14)r----12-12-(12)-----12-|
|--------------------------------12-|
|-----------------------------14----|
|-----------------------------------|


                                        \1.5/   \1.5/   \1.5/   \1.5/   \1.5/
               ~~~~~~~~~
   E  Q       +E   +Q.     E    +Q.    +E      +E      +E      +E      +E
|----------------------------|------------------------------------------------|
|-------------------------15-|-(15)---(15)----(15)----(15)----(15)----(15)----|
|-12-14b16===(14)-(14)r------|------------------------------------------------|
|--0-------------------------|------------------------------------------------|
|----------------------------|------------------------------------------------|
|----------------------------|------------------------------------------------|


    \1.5/
   +E      Q       +E   +Q    a  +E   E
|---------------------------------------|
|-(15)----------------------------------|
|---------14b16===(14)-(14)--14r(14)-12-|
|---------------------------------------|
|---------------------------------------|
|---------------------------------------|


  (B)
   E      +E    E  E  E  E      +E    E
|--------------12-12----15b17==(15)r-15b17==|
|--------------12----12---------------------|
|-14b16==(14)r------------------------------|
|-------------------------------------------|
|-------------------------------------------|
|-------------------------------------------|


                                       (E)
            |--3--|
   +E    E  E  E  E  E  E E E    a      +H.       +E  a a  E
|-(15)r-15-12h14p12----12-----|-17b20==(17)r=====(17)-----15b17==|
|-------------------15-12-----|-------------------------x--------|
|-------------------15----0---|-----------------------x----------|
|---------------------------0-|----------------------------------|
|-----------------------------|----------------------------------|
|-----------------------------|----------------------------------|


                      ~~~~~
    |-3--|
   +Q   +E   E  E  E  E     E  E
|-(15)r(15)-12-------------------|
|--------------15p12-------------|
|--------------------14b15-12----|
|-----------------------------14-|
|--------------------------------|
|--------------------------------|


  (A)
                                        ~~
   E  S  S        E  +E   E  E  E  E    H     E  E  E  E
|------------------------------------|-------------------|
|------------------------------------|-------------------|
|-12-14-15b17.5==15r(15)p14-12----12-|-12----------------|
|------------------------------14----|-------14-12-------|
|------------------------------------|-------------14-13-|
|------------------------------12----|-------------------|


  (E)
                           ~~~
   |--3--|
   E  E  E  E  E  E  E  E  E
|----------------------------|
|----------------------------|
|-------------------------12-|
|----------------12-14-------|
|-12h13p12-------------------|
|----------15-12-------12----|


  (B)                          (E)
 ~~~~~~                                  ~~~~~~~       ~~
                     |--3--|
   +Q    E  E  E  E  E  E  E    E  E  E  E  +E   E  E  E
|----------------------------|----------------------------|
|----------------------------|----------------------------|
|-(12)-----------------------|----------------------------|
|-------14-12----------------|-------12-14-(14)-14-12-----|
|-------------14-13-12h13p12-|------------------------14--|
|----------------------------|-15-12----------------------|


                             Guitar Solo VII
          (B)                 (E)
    ~~~~
                               |-3-| |-3--| |-3--|
   +E   E  E  E  E  E  E E     E E E E  E E E E  E S S S S
|------------------------0-||-15p0-0-0h15p0-0-0h15p0-0-0-0-|
|------------------------0-||--------------------------0---|
|---------14-14-14-14-14---||------------------------------|
|---------13-13-13-13------||------------------------------|
|-(14)-14-------14-14------||------------------------------|
|--------------------------||------------------------------|


  |-3--| |-3--|
  E  E E E E  E S S  E E.  S
|-0-15p0-0-0-15p0-0-15-0--15--|
|-0--------------------0--15--|
|-----------------------------|
|-----------------------------|
|-----------------------------|
|-----------------------------|


   |--------------14:8---------------|    |-------------14:8---------------|
   E E  E  E E  E  E E  E  E E  E  E E    E  E E  E  E E  E  E E  E  E E E E
|-15p0-15-15p0-15-15p0-15-15p0-15-15p0-|-15-15p0-15-15p0-15-15p0-15-15p0-0-0-|
|-15---15------------------------------|-------------------------------------|
|--------------------------------------|-------------------------------------|
|--------------------------------------|-------------------------------------|
|--------------------------------------|-------------------------------------|
|--------------------------------------|-------------------------------------|


                           |--3--|
   Q       +Q     E     E  E  E  E    E  E  E  E      +E    E  E  E
|-15b17===(15)r--15b17-15-12h14p12-|----12--------------------------|
|----------------------------------|-15----15-15-----(15)--15-------|
|----------------------------------|----------14b16==(14)r----14-12-|
|----------------------------------|--------------------------------|
|----------------------------------|--------------------------------|
|----------------------------------|--------------------------------|


  (B)
                                                        ~~~~~~~
                                         |---3----|
   H         +E   +E   E       E        +E   +E   E  E  E  +E  E  E  E
|------------------------------------|-------------------------0-------|
|------------------------------------|-------------------------0-------|
|-14b16=====(14)r(14)-12b12.5h14b16==|=(14)r(14)p12-14---------0-12-14-|
|------------------------------------|-----------------14-(14)---------|
|------------------------------------|---------------------------------|
|------------------------------------|---------------------------------|


  (E)                                               (A)
                                                    |-3-|     |-3-|
   E     +E   E  E  E  E  E  E   E  E E E E E E E   E E E E E E E E E S S
|------------------------------|------------------|-----------------------|
|------------------------------|------------------|-----------------------|
|-14b16r(14)-12h14-12p11-12-11s|=9-11p9s7-9p7s6-7-|-6h7p6s4-6-4h6p4s2-4-2-|
|------------------------------|------------------|-----------------------|
|------------------------------|------------------|-----------------------|
|------------------------------|------------------|-----------------------|


                        (E)                     (B)
                                                    |-3-|
  S S S S E E H         +Q    E   E +E  E E E   E E E E E E E a E E
|---------------------|-----------------------|---------------------|
|---------------------|-------3--(3)----------|---------------------|
|-2p0-2p0---0h2b4=====|=(2)--(2)--2r(2)-1-----|---------------------|
|---------2-----------|-------------------2p0-|---------------0h2-2-|
|---------------------|-----------------------|-2-1-0h1p0-----------|
|---------------------|-----------------------|-----------3-0-------|


                                      Main Theme
  (E)              B7                  (E)   E7+9
                       ~~~~~~~
  E E E E E Q  E   E E Q  +E  E E E    E E E E E Q  E
|----------------|------------------||----------------|
|----------------|----------------0-||-------8---8----|
|----------------|-8---8--(8)-8-8-0-||-------7---7----|
|-----2---0-2s=7-|-7---7--(7)-7-7-0-||-------6---6----|
|----------------|----------------0-||-7-7---7---7----|
|-0-0---0--------|---7--------------||---0-0--------0-|


         (B)         (E)   E7+9
  E E  E E E E E E   E E E E E Q  E
|------------------|----------------|
|-8-0--------------|-------8---8----|
|-7-0--------------|-------7---7----|
|-6-0--------------|-------6---6----|
|-7--------5-5-6-6-|-7-7---7---7----|
|-----/7-7---------|---0-0--------0-|


         (B)         (E)   E7+9              (B)
  E E  E E E E E E   E E E E E Q  E   E E  E E E E E E
|------------------|----------------|------------------|
|-8-0--------------|-------8---8----|-8-0--------------|
|-7-0--------------|-------7---7----|-7-0--------------|
|-6-0--------------|-------6---6----|-6----------------|
|-7--------5-5-6-6-|-7-7---7---7----|-7--------5-6-7---|
|-----/7-7---------|-----0--------0-|-----/7-7-------7-|


  Bm7                                          (E) E7+9
  E E E  E  +E  E E E    E E  E  E E  E  E E   E E E E E E E E
|-------10-(10)-------|-10---10-10---10-10-0-|-----------------|
|-------10-(10)-------|-10---10-10---10-10-0-|-----8---8-8---8-|
|---------------------|--------------------0-|-----7---7-7---7-|
|-9-9-9---------9-9-9-|----9-------9---------|-----6---6-6---6-|
|---------------------|----------------------|-----7---7-7---7-|
|-7-7-7---------7-7-7-|----7-------7---------|-0-0---0-----0---|


                      Am7
  +E  E E E E E E E   E E E E E E E E   +E  E E E E E E E
|-------------------|-----8---8-8---8-|-(8)---8---8-8-8---|
|-(8)---8---8-8-8---|-----8---8-8---8-|-(8)---8---8-8-8-0-|
|-(7)---7---7-7-7---|-----------------|-----------------0-|
|-(6)---6---6-6-6-5s|=7-7---7-----7---|-----7---7-------0-|
|-(7)---7---7-7-7---|-----------------|-------------------|
|-----0---0-------3s|=5-5---5-----5---|-----5---5---------|


  (E) E7+9          (B)               (E) E7+9
  E E E E E E E E   E E E E E E E E   E E E E E E E  E
|-----------------|-----------------|------------------|
|-----8---8-8-----|-----------------|-----8-x-8-8-8\---|
|-----7---7-7-----|-----------------|-----7-x-7-7-7\---|
|-----6---6-6---7s|=9-9-9-9-7s9-9-9-|-----6-x-6-6-6\-0-|
|-----7---7-7-----|-----------------|-7---7-x-7-7-7\-0-|
|-0-0---0-----0-5s|=7-7-7-7-5s7-7-7-|---0--------------|


  B7
          ~~~~~~~~~~~~~~~~~~~~~~~~~
  E E Q  +H       +W           +H     H
|---------------|------------|-------------||
|---------------|------------|-------------||
|-----8--(8)----|-(8)--------|-(8)---------||
|-----7--(7)----|-(7)--------|-(7)---------||
|---------------|------------|-------------||
|-7-------------|------------|-------------||


 Free Time Outro
  E7+9       N.C.(E)
  TP                                           ~~~~~~~
  W           E  S  S  S  S  S      +S   S  S  E  +Q
|----------:----12-12----------------------------------:
|-8--------:-12-12-12-15-12----------------------------:
|-7--------:-12-------------14pb15r(14)-12----12-(12)--:
|-6--------:-------------------------------14----------:
|-7--------:-------------------------------------------:
|----------:-------------------------------------------:


  H.=H
                   |--3---|
   S  S  E  E  E  +Q   Q  Q
|---------------------------|
|---------------------------|
|---------------------------|
|-14p12---------------------|
|-------14-13-12-(12)s14s12-|
|---------------------------|


                        \1/  \1/  \1/  \1/
   ~~~
   H.      Q    +H     +E   +E   +E   +E     q  Q  H
|-------------:----------------------------|------------*|
|-------------:----------------------------|------------*|
|-------------:----------------------------|------------*|
|-------------:----------------------------|------------*|
|-11----------:----------------------------|------------*|
|----------0--:-(0)----(0)--(0)--(0)--(0)--|-0----------*|



Duration Legend
---------------
W - whole; H - half; Q - quarter; E - 8th; S - 16th; T - 32nd; X - 64th; a - acciaccatura
+ - note tied to previous; . - note dotted; .. - note double dotted
Uncapitalized letters represent notes that are staccato (1/2 duration)
Irregular groupings are notated above the duration line
Duration letters will always appear directly above the note/fret number it represents the
duration for.  Duration letters with no fret number below them represent rests.  Multi-
bar rests are notated in the form Wxn, where n is the number of bars to rest for.  Low
melody durations appear below the staff

Tablature Legend
----------------
 h   - hammer-on
 p   - pull-off
 b   - bend
 pb  - pre-bend
 r   - bend release (if no number after the r, then release immediately)
 /\  - slide into or out of (from/to "nowhere")
 s   - legato slide
 S   - shift slide
 - natural harmonic
[n]  - artificial harmonic
n(n) - tapped harmonic
 ~   - vibrato
 tr  - trill
 T   - tap
 TP  - trem. picking
 PM  - palm muting
\n/  - tremolo bar dip; n = amount to dip
 \n  - tremolo bar down
 n/  - tremolo bar up
/n\  - tremolo bar inverted dip
 =   - hold bend; also acts as connecting device for hammers/pulls
 <> - volume swell (louder/softer)
 x   - on rhythm slash represents muted slash
 o   - on rhythm slash represents single note slash

Misc Legend
-----------
 |  - bar
||  - double bar
||o - repeat start
o|| - repeat end
*|  - double bar (ending)
 :  - bar (freetime)
 $  - Segno
 &  - Coda
Tempo markers -  = BPM(8/16=s8/s16), where s8 = swing 8ths, s16 = swing 16ths

comments
We did not receive enough feedback on this tab! Please rate:
print report bad tab
1 2 3 4 5
I want to post or [tab]
guest
You may want to rate the tab now too:
select rating
Please do not post tabs as comments. Select "correction" instead!