Oops, an error
Loading. Please wait.
ver1
ver1

Whole song

Interactive

More versions @911Tabs.com
410 views 1 this week
no commentswrite comment
1 2 3 4 5
please rate
Autoscroll
+/-
esc
set tempo
stop
Contributor
Hey! There's an official Ultimate Guitar app which is ideal
for learning songs when you're away from computer. Get the app
WARNING: You are trying to view
                                    content from Ultimate-Guitar.com
                                    in an unauthorized application,
                                    which is prohibited.

                                    Please use an official Ultimate
                                    Guitar Tabs application for iPhone,
                                    iPad or Android to access legitimate
                                    chords, guitar, bass, and drum tabs
                                    from Ultimate-Guitar.com database.

                                    Type "ultimate guitar tabs" in Apple
                                    App Store's or Android Market's
                                    search to find the application.
#----------------------------------PLEASE NOTE---------------------------------#
#This file is the author's own work and represents their interpretation of the #
#song. You may only use this file for private study, scholarship, or research. #
#------------------------------------------------------------------------------#

ICED OVER (Live)
As recorded by Stevie Ray Vaughan
(From the 2002 Album LIVE AT CARNEGIE HALL)

Transcribed by TLSspider 

Words by Gwendolyn Collins (wife of Albert Collins) Music by Albert Collins
Arranged by Stevie Ray Vaughan

F5
13 x 10 10 x 13
	
F9
x 8 7 8 8 8
	
C9
8 7 8 7 8 8
	
Ab9
x 11 10 11 11 11
G9
x 10 9 10 10 10
	
Gb9
x 9 8 9 9 9
	
Db9
9 8 9 8 9 9
	
Db
9 8 11 10 9 9

Gtr I (E A D G B E) - 'Stevie Ray Vaughan'
Gtr II (E A D G B E) - 'Rhythm Guitar (HORNS)'
Gtr III (E A D G B E) - 'Rhythm - (Organ)'
Gtr IV (E A D G B E) - 'SRV EFFECTS'

 Intro
  Moderately Fast Rock Q=230(8=s8)
 4/4
  Gtr II
  W             W                W
  Gtrs I, IV
            PM
  H.      E E   H    H           W
|-----------8-:---------------|----------------|
|-----------8-:---------------|----------------|
|-----------8-:---------------|----------------|
|-------------:---------------|----------------|
|-------------:------8tr10----|-(8tr10)--------|
|-------------:---------------|----------------|


                                  F5       F9
   W                 H          E Q.       E E E E H
                                  |        |     |
                                  /        /     /

                     ~~~~~~~~~~~
   W                 H       a  E E  E E   e E E e E e e e
|----------------|-----------------------|-8-----8---x-x-x----|
|----------------|-----------------------|-8-----8---x-x-x----|
|----------------|---------------------8-|-8-----8---x-x-x----|
|----------------|----------------8h10---|--------------------|
|-(8tr10)--------|-(10)----(10)----------|--------------------|
|----------------|-----------------------|--------------------|


                      C9
  E E E E H           E E E  E H
  |     |             |      |
  /     /             /      /

  e e e e e Q.        Q   E  e e e e e
|-8-x-x-8-----------|--------8---x-x-x-|
|-8-x-x-8-----------|-------10---x-x-x-|
|-8-x-x-8-----------|--------9---x-x-x-|
|-----------8tr10---|------------------|
|-------------------|------------------|
|-------------------|-8----------------|


                  Ab9  G9          Gb9  Db
   E E E  E Q   E  E    W          H    H
   |      |        |    |          |    |
   /      /        /    /          /    /

                                        PM
   e e e  e E E E  E    W          H    H
|--8-x-x--8---x-x-11s|=10--------|-9---------|
|-10-x-x-10---x-x-11s|=10--------|-9---------|
|--9-x-x--9---x-x-11s|=10--------|-9---------|
|-------------x-x-10s|==9--------|-8---------|
|--------------------|-----------|-----------|
|--------------------|-----------|------9----|


  C9
  W                          W
  |                          |
  /                          /

  Q  E  E       E E  Q    a  E  T T T T  E  E H
|-----------------------|-------8------------------|
|-----------------------|-8-(8)---8----------------|
|------10b10.5-10p8-----|-8h=9------x--------------|
|-------------------10--|-------------x------------|
|-----------------------|---------------10-10------|
|-8---------------------|--------------------------|


                                                   F5
  E     E Q  H       W                H          E Q.
  |                                                |
  /                                                /

                                      ~~~~~~~~~~~
  W                  W                H       a  E E  E E
|-----------------|----------------|-----------------------|
|-----------------|----------------|-----------------------|
|-----------------|----------------|--------------------8--|
|-----------------|----------------|---------------8h10----|
|-8tr10-----------|-(8tr10)--------|-(8)----(10)-----------|
|-----------------|----------------|-----------------------|


  F9                                    C9
  E E E E H         E E E E H           E E E  E H          E E E  E H
  |     |           |     |             |      |            |      |
  /     /           /     /             /      /            /      /

                                        PM
  E E E E E E E E   E E E E E Q.        Q   E  E E E E E    E E E  E E Q.
|-8-----8---x-x-x-|-8-x-x-8-----------|--------8---x-x-x-|--8-x-x--8-----------|
|-8-----8---x-x-x-|-8-x-x-8-----------|-------10---x-x-x-|-10-x-x-10-----------|
|-8-----8---x-x-x-|-8-x-x-8-----------|--------9---x-x-x-|--9-x-x--9-----------|
|-----------------|-----------8tr10---|------------------|-------------8tr10---|
|-----------------|-------------------|------------------|---------------------|
|-----------------|-------------------|-8----------------|---------------------|


  F9
  E E E E H         E E E E H
  |     |           |     |
  /     /           /     /

  Q   E E E E E E   E E E E E Q.
|-------8---x-x-x-|-8-x-x-8-----------|
|-------8---x-x-x-|-8-x-x-8-----------|
|-------8---x-x-x-|-8-x-x-8-----------|
|-----------------|-----------8tr10---|
|-8---------------|-------------------|
|-----------------|-------------------|


  C9                                 Ab9  G9
  E E E  E H          E E E  E Q   E  E    W
  |      |            |      |        |    |
  /      /            /      /        /    /

  Q   E  E E E E E    E E E  E E E E  E    W
|--------8---x-x-x-|--8-x-x--8---x-x-11s|=10----|
|-------10---x-x-x-|-10-x-x-10---x-x-11s|=10----|
|--------9---x-x-x-|--9-x-x--9---x-x-11s|=10----|
|------------------|-----------------10s|==9----|
|------------------|--------------------|-------|
|-8----------------|--------------------|-------|


  Gb9         C9
  H    H      W                          W
  |    |      |                          |
  /    /      /                          /

  H    H      Q  E  E       E E  Q    a  E  T T T T  E  E H
|-9---------|-----------------------|-------8------------------||
|-9---------|-----------------------|-8-(8)---8----------------||
|-9---------|------10b10.5-10p8-----|-8h=9------x--------------||
|-8---------|-------------------10--|-------------x------------||
|-----------|-----------------------|---------------10-10------||
|------9----|-8---------------------|--------------------------||


 Guitar Solo
  C7
             |-3--|        |--3---|
  E  E E  E  E  E E  E E   E  E   E Q   H
|------8--8--8--8-8----8-|-8-----------------|
|------------------------|-------------------|
|------8-10-11p10p8----8-|-8-----------------|
|---10--------------10---|---10p==8----------|
|------------------------|-------------------|
|------------------------|-------------------|
|
| Gtr II
| E  E E  E  h             E    E   E E H
|------------------------|-------------------|
|------------------------|-------------------|
|------------------------|-------------------|
|-8-------8--------------|-8----------8------|
|-7-------7--------------|-7----------7------|
|------------------------|-------------------|


  E  E E  E  a  E E  Q    S S  S S  E a E H
|------8--8-------------|----------------------|
|-----------------------|-x--------------------|
|------8-10-10h11-8-----|---x---------8h9------|
|---10--------------10--|-----10p8-10----------|
|-----------------------|----------------------|
|-----------------------|----------------------|
|
| E  E E  E     H         E    E    E   E H
|-----------------------|----------------------|
|-----------------------|----------------------|
|-----------------------|----------------------|
|-8-------8-------------|-8-------------8------|
|-7-------7-------------|-7-------------7------|
|-----------------------|----------------------|


  F7
          ~~~~~~~~~~~~~~~~~~
       |3-|
  Q    E  Q     H        H.           E      E
|---------------------|------------------------|
|-----11s13---(13)----|-13---------------------|
|---------------------|--------------10b10.5---|
|---------------------|------------------------|
|---------------------|------------------------|
|---------------------|------------------------|
|
| E E  E    E   H        E  E E E H
|---------------------|------------------------|
|---------------------|------------------------|
|-8---------8---------|--8------8--------------|
|-7---------7---------|--7------7--------------|
|---------------------|------------------------|
|---------------------|------------------------|


  C7
   E E  Q   a  Q    E a E    E E  a E E   H
|-------------------------|--------------------|
|-----------8-(8)--10-----|--------------------|
|-10-8------8h=9---10-8h9-|--------------------|
|------10-----------------|-10-8---------------|
|-------------------------|------10s8-6b7------|
|-------------------------|--------------------|
|
|  E E  E E    H             E E    E E   H
|-------------------------|--------------------|
|-------------------------|--------------------|
|-------------------------|--------------------|
|--8------8---------------|--8--------8--------|
|--7------7---------------|--7--------7--------|
|-------------------------|--------------------|


  G7                          F7
                              |--3---|
   E  E E  E  S  S  S S  Q    E  E   E  Q   E  E  E a E
|-------8--8--8--8--8-8--8--|-8-------------------------|
|---------------------------|--------------------10-----|
|-------8-10-10h11p10p8h10--|-8-------------8----10-8h9-|
|----10---------------------|---10p==8-10-----10--------|
|---------------------------|---------------------------|
|---------------------------|---------------------------|
|
|  E  E E  E  H               E    E    E E H
|---------------------------|---------------------------|
|---------------------------|---------------------------|
|-10------10----------------|-8-----------8-------------|
|--9-------9----------------|-7-----------7-------------|
|---------------------------|---------------------------|
|---------------------------|---------------------------|


  C7
   E  E Q   Q   E E    E  T T T T  e  E H
|--------------10---|-----8------------------|
|--------------10-8-|-(8)---8----------------|
|--------------10-8h|==9------x--------------|
|-10-10-------------|-----------x------------|
|-10-10-------------|-------------10-10------|
|-------------------|------------------------|
|
|  E  E E E H          E  E        E  E H
|-------------------|------------------------|
|-------------------|------------------------|
|-------------------|------------------------|
|--8------8---------|--8--------------8------|
|--7------7---------|--7--------------7------|
|-------------------|------------------------|


  E E  S  S  S S  E E  Q    E  E Q   H
|------8--8--8-8--8-8-----|-8--8----------|
|-------------------------|---------------|
|-----10h11p10p8-10-8-----|-8-10----------|
|---------------------10--|---------------|
|-------------------------|---------------|
|---8---------------------|---------------|
|
| e E  E     E    H         E  E E E H
|-------------------------|---------------|
|-------------------------|---------------|
|-------------------------|---------------|
|-8----------8------------|-8------8------|
|-7----------7------------|-7------7------|
|-------------------------|---------------|


                                               F7
                                                     ~~~~~~~~~~~~~
  H       a  Q    E a  E     E E  a E E H      E  E  Q    Q.    E
|-------------------------|------------------|---------------------|
|---------8-(8)--10-8-(8)-|------------------|---11s13---13----13--|
|---------8h=9---10-8h=9--|------------------|---------------------|
|-------------------------|-10-8-------------|---------------------|
|-------------------------|------10s8-6------|---------------------|
|-------------------------|------------------|---------------------|
|
| E E E E    H               E E    E E H      E  E  E E  H
|-------------------------|------------------|---------------------|
|-------------------------|------------------|---------------------|
|-------------------------|------------------|-8-------8-----------|
|-8-----8-----------------|--8--------8------|-7-------7-----------|
|-7-----7-----------------|--7--------7------|---------------------|
|-------------------------|------------------|---------------------|


                            C7
    ~~~~
                                       |--3---|
    Q     E  E  E  E E  E    Q         E  E   E E E  E E
|--------------11-13------|-11b11.5-------------8--------|
|-(13)---13-13---------13-|-----------13p11s==8---8-10-8-|
|-------------------------|-------------------------10-8-|
|-------------------------|------------------------------|
|-------------------------|------------------------------|
|-------------------------|------------------------------|
|
|   E  E  E  E  H            E      E  E    E   H
|-------------------------|------------------------------|
|-------------------------|------------------------------|
|---8--------8------------|------------------------------|
|---7--------7------------|--8--------------8------------|
|-------------------------|--7--------------7------------|
|-------------------------|------------------------------|


                                              ~~
   E E  E a E E E  E E    H         Q      E  E
|----------------------|-10-------(10)b11--8-----|
|---------------8h10-8-|---------------------10--|
|------10-8h9----------|-------------------------|
|-10---10--------------|-------------------------|
|----------------------|-------------------------|
|----------------------|-------------------------|
|
|  E E  E   E H           E E E E   H
|----------------------|-------------------------|
|----------------------|-------------------------|
|----------------------|-------------------------|
|--8--------8----------|--8-----8----------------|
|--7--------7----------|--7-----7----------------|
|----------------------|-------------------------|


  F7                    C7
    W                   W
    ~~~~
    Q    E E E E  E E   E E  E E E E  E E
|--------8---8--------|----------8------8-|
|-(10)-----8---8------|---8-10-8---8----8-|
|----------------10-8h|=9------------10-8h|
|---------------------|-------------------|
|---------------------|-------------------|
|---------------------|-------------------|
|
|   e  E E e H          e E  E e H
|---------------------|-------------------|
|---------------------|-------------------|
|---8------8----------|-------------------|
|---7------7----------|-8------8----------|
|---------------------|-7------7----------|
|---------------------|-------------------|


                                      C9
                          Gtr II
   W                      Q    E      E     +H
                               |      |      |
                               /      /      /

                          Gtrs I, IV
   E  T T T T  e E H      E  E E      E      Q  E E
|-(8)-8-----------------|-8--8-8------8------8----8------|
|-(8)---8---------------|-8h10p8h10-8-8tr10-------8tr10--|
|--9------x------0------|--------------------------------|
|-----------x-----------|--------------------------------|
|-------------10--------|--------------------------------|
|-----------------------|--------------------------------|
|                         E  E S  S S Q.        E E
|                              |-3--|
|
|                         Gtr III
|  E  E        E E H      H                  H
|-----------------------|--------------------------------|
|-----------------------|--------------------------------|
|-----------------------|--------------------------------|
|--8-------------8------|-8------------------8-----------|
|--7-------------7------|-7------------------7-----------|
|-----------------------|--------------------------------|


   Q   E     Q.         Q
             |
             /

   ~~~
   Q   E     E  Q       Q
|--8---8--------8----------|
|-(8)--8tr10------8tr10----|
|--------------------------|
|--------------------------|
|--------------------------|
|--------------------------|
   Q   Q        E Q.


   Q   E     Q.         Q     Q   E     Q.         Q
             |                          |
             /                          /

   ~~~                        ~~~
   Q   E     E  Q       Q     Q   E     E  Q       Q
|--8---8--------8----------|--8---8--------8----------|
|-(8)--8tr10------8tr10----|-(8)--8tr10------8tr10----|
|--------------------------|--------------------------|
|--------------------------|--------------------------|
|--------------------------|--------------------------|
|--------------------------|--------------------------|
   Q   Q        E Q.          Q   Q        E Q.


             F9
   Q   E     Q.         Q
             |
             /

   ~~~
   Q   E     E  Q       Q
|--8---8--------8----------|
|-(8)--8tr10------8tr10----|
|--------------------------|
|--------------------------|
|--------------------------|
|--------------------------|
   Q   Q        E Q.


                                        C9
   Q   E     Q.         Q     Q   E     Q.         Q
             |                          |
             /                          /

   ~~~                        ~~~
   Q   E     E  Q       Q     Q   E     E  Q       Q
|--8---8--------8----------|--8---8--------8----------|
|-(8)--8tr10------8tr10----|-(8)--8tr10------8tr10----|
|--------------------------|--------------------------|
|--------------------------|--------------------------|
|--------------------------|--------------------------|
|--------------------------|--------------------------|
   Q   Q        E Q.          Q   Q        E Q.


                                   G9
    Q   E  Q.      Q       Q     E Q.         Q
           |                       |
           /                       /

    Q   E  E  E  E E  E    Q     Q     E E    E  E
|--(8)--8---------------|--------8-----------------|
|-(10)--8---------------|--------------------------|
|---------10--8----8-10-|-10b12-------10-8b9-------|
|---------------10------|--------------------10-10-|
|-----------------------|--------------------------|
|-----------------------|--------------------------|


         F9                         C9
  Q    E  Q.      Q        Q     E  Q.       Q
          |                         |
          /                         /

  E E  E  E  E E  E a E    Q  a  Q      E E  E  E
|-----------------------|-----8-(8)-----8---------|
|-----------------------|-----8-(8)-----8-8-------|
|-8-9-10-----8-9-10-8h9-|-----8h=9-----10-8-------|
|--------10-------------|-10----------------10-10-|
|-----------------------|-------------------------|
|-----------------------|-------------------------|


    Q          E E  Q   Q
                 |  |
                 /  /

                 ~~~~~~
  a E T T T T  E e +q   E E
|-8---8---------------------||
|-8-----8-------------------||
|-8h9-----x------0-(0)------||
|-----------x-----------8---||
|-------------10------------||
|-------------------------8-||


   Q        E  E +H          Q        E  Q.      Q
            |  |  |                      |
            /  /  /                      /

     |-3-|                     |-3-|
   E S S S  E  E  E  Q  E    E S S S  E  E  E  Q    E
|----8--------------------|----8-----------------------|
|------8------------------|------8---------------------|
|--------x----------------|--------x-------------------|
|-10-------10-10--8-10--8-|-10-------10-10--8-10---10--|
|-------------------------|----------------------------|
|-------------------------|----------------------------|


  Q        E    Q.     Q       Q     E  Q.          Q
                |                       |
                /                       /

                                        ~~~~~~~~
  E  E     E    E  E E E  E    E  E  E  E   +E   E  E  E
|------------------8---8----|----11----------------11-13-|
|---------------8----8---11s|=13----13-13--(13)-13-------|
|-8-10b11-10b12-------------|----------------------------|
|---------------------------|----------------------------|
|---------------------------|----------------------------|
|---------------------------|----------------------------|


  F9
   Q     E  Q.           Q        Q    E  Q.        Q
            |                             |
            /                             /

                            ~~~~~~~~~                  ~~
   Q.       E     Q      E  E    +Q    E  E   E  E  E  E
|-13b14----13b15-13b15--11----|--------------11-13-15-11-|
|--------------------------13-|-(13)--13-13--------------|
|-----------------------------|--------------------------|
|-----------------------------|--------------------------|
|-----------------------------|--------------------------|
|-----------------------------|--------------------------|


  C9
   Q   E  Q.    Q     Q   E  Q.            Q
          |                  |
          /                  /

   ~~~
   Q.     E Q.    E   E E E  E     +Q      E E
|-11-----17sx\------|---8------------------8---|
|--------17sx\------|-----8-11b13-(11)b13----8-|
|-----------------5-|-9------------------------|
|-------------------|--------------------------|
|-------------------|--------------------------|
|-------------------|--------------------------|


  G9                       F9
  Q       E   Q.     Q     Q       E Q.         Q
              |                      |
              /                      /

  E  Q        E   Q  E E   E  Q.         E    E E  E
|-8-10b11---(10)-----8---|-8-11b13------11b12-8------|
|---10b11---(10)-10----8-|----------------------8----|
|------------------------|------------------------10-|
|------------------------|---------------------------|
|------------------------|---------------------------|
|------------------------|---------------------------|


  C9                                       C7
  Q    E Q.     Q     Q    E Q.      Q     W
         |                   |
         /                   /

                             ~~~~~~~
  E E  E E  Q   E E   E E  E E  +Q   Q     E  Q.      H
|-----------8--10---|---8---------------||--------------------|
|--------------10---|---8---------------||---11------11b13----|
|-8-9-10----------8h|=9------0--(0)-----||--------------------|
|-------------------|-------------------||--------------------|
|-------------------|-----10------------||--------------------|
|-------------------|-------------------||--------------------|
|
| Gtr II
| W                   W                    E  E  E E  H
|-------------------|-------------------||--------------------|
|-------------------|-------------------||--------------------|
|-------------------|-------------------||--------------------|
|-------------------|-------------------||-8-------8----------|
|-------------------|-------------------||-7-------7----------|
|-------------------|-------------------||--------------------|


  W                   W
                      |--3---|
  E E E E E  Q.       E  E   E  E E E E  E E
|-8---8---8-10b12---|-8h10p==8------8---------|
|---8---8-----------|----------10-8---8-------|
|-------------------|-------------------10-8--|
|-------------------|-------------------------|
|-------------------|-------------------------|
|-------------------|-------------------------|
|
| E E E E H           E    E    E E H
|-------------------|-------------------------|
|-------------------|-------------------------|
|-------------------|-------------------------|
|-8-----8-----------|-8-----------8-----------|
|-7-----7-----------|-7-----------7-----------|
|-------------------|-------------------------|


                          F7
                                       ~~
  E E  E E  E    E  E E   E  Q.        H      E E E  E      E  E  e  E
|----------10b12-8------|-8-11b13-----11----|-8---8--------------------|
|---8-10-8---------10-8-|-------------------|---8----------------------|
|-9---------------------|-------------------|-------10b12-(10)-8-------|
|-----------------------|-------------------|--------------------10-10-|
|-----------------------|-------------------|--------------------------|
|-----------------------|-------------------|--------------------------|
|
| E E  E E  H             E  E    E E  H      E E E  E      H
|-----------------------|-------------------|--------------------------|
|-----------------------|-------------------|--------------------------|
|-----------------------|-8---------8-------|-8------8-----------------|
|-8------8--------------|-7---------7-------|-7------7-----------------|
|-7------7--------------|-------------------|--------------------------|
|-----------------------|-------------------|--------------------------|


  C7
  E E  E  E    E E E  E    Q      E  E  E E  E  E
|-----------------------|----------------------------|
|--------------8--------|---------8------------------|
|-8-9-10-10b12---8-9-10-|-10b12-----(0)-8-9-10-10b12-|
|-----------------------|----------------------------|
|-----------------------|----------------------------|
|-----------------------|----------------------------|
|
| E E  E  E    H           E    E E  E  H
|-----------------------|----------------------------|
|-----------------------|----------------------------|
|-----------------------|----------------------------|
|-8-------8-------------|--8---------8---------------|
|-7-------7-------------|--7---------7---------------|
|-----------------------|----------------------------|


  G7                       F7
   E E E  E  Q     E  E    E E  E  E    E E E  E
|------------------------|-----------------------|
|--8---------------8-----|--------------8--------|
|----8h9-10-10b12----(0)-|-8h9-10-10b12---8-9-10-|
|------------------------|-----------------------|
|------------------------|-----------------------|
|------------------------|-----------------------|
|
|  E E E  E  H             E E  E  E    H
|------------------------|-----------------------|
|------------------------|-----------------------|
|-10-----10--------------|-8-------8-------------|
|--9------9--------------|-7-------7-------------|
|------------------------|-----------------------|
|------------------------|-----------------------|


  C7
   E    E E E  E E E  E   a E T T T T  E  E Q    Q
|-----------------------|-----8---------------------||
|-------8-8-------------|-8-----8--------------/11--||
|-10b12-------10-8h9----|-8h9-----x------------/12--||
|--------------------10-|-----------x---------------||
|-----------------------|-------------10-10---------||
|-----------------------|---------------------------||
|
|  E    E E E  H            E E        E  E H
|-----------------------|---------------------------||
|-----------------------|---------------------------||
|-----------------------|---------------------------||
|--8--------8-----------|---8-------------8---------||
|--7--------7-----------|---7-------------7---------||
|-----------------------|---------------------------||


 Interlude
  C7
  Gtrs I, IV
    Q.     E  +H         H.             Q
|--------------------|----------------------|
|-/11----/11-(11)----|--11------------------|
|-/12----/12-(12)----|--12------------------|
|--------------------|----------------------|
|--------------------|----------------------|
|--------------------|----------------------|
|
| Gtr II
|                               |-3--|
|   H          H         H      E  E E  E E
|--------------------|----------------------|
|-/11--------/11-----|-/11------------------|
|-/12--------/12-----|-/12-----12s10p8------|
|--------------------|-----------------10p8-|
|--------------------|----------------------|
|--------------------|----------------------|


             ~~~~~~~~~~~~~~~~~~~~~~~
   E    E E  E  +H               Q.    E Q    Q
|-----------20-(20)-----------|-20----20sx\------||
|-----------------------------|------------------||
|-----/17---------------------|------------------||
|-----------------------------|------------------||
|-----------------------------|------------------||
|-----------------------------|------------------||
|
|  ~~~~~~~~~~~~~~~~~~~~~~~
|  H.                 +E  a E    H       Q    Q
|-----------------------------|------------------||
|-------------------------8-8-|------------------||
|-------------------------8h9-|------------------||
|-10-----------------(10)-----|--------------10--||
|-----------------------------|------------------||
|-----------------------------|------------------||


  F7                                    C7
                                                   ~~~~~~~~~~~~~~~~~~
    W               W                    E   E  E  E  +H
|---------------|---------------------|--------20-20-(20)-----------|
|---------------|---------------------|-----------------------------|
|---------------|---------------------|-----17----------------------|
|---------------|---------------------|-----------------------------|
|---------------|---------------------|-----------------------------|
|---------------|---------------------|-----------------------------|
|
|                                        ~~~~~~~~~~~~~~~~~~~~~~~
|                         |-3--|
|   H      H        H     E  E E  E E    H.                 +E  a E
|---------------|---------------------|-----------------------------|
|-/11----/11----|-/11-----------------|-------------------------8-8-|
|-/12----/12----|-/12----12s10p8------|-------------------------8h9-|
|---------------|----------------10p8-|-10-----------------(10)-----|
|---------------|---------------------|-----------------------------|
|---------------|---------------------|-----------------------------|


                                G7              F7
 ~~~~~
   Q.    E      Q        Q        W               W
|-20----20b23-(20)b23--(20)\--|---------------|------------------------|
|-----------------------------|---------------|------------------------|
|-----------------------------|---------------|------------------------|
|-----------------------------|---------------|------------------------|
|-----------------------------|---------------|------------------------|
|-----------------------------|---------------|------------------------|
|
|                                                       |-3--|
|  H            Q        Q        H      H        H     E  E E  E E
|-----------------------------|---------------|------------------------|
|-----------------------------|-/11----/11----|-/11--------------------|
|-----------------------------|-/12----/12----|-/12----12s10p8---------|
|-----------------------10----|---------------|----------------10p8----|
|-----------------------------|---------------|------------------------|
|-----------------------------|---------------|------------------------|


  C7
             ~~~~~~~
   E   E  E  E  +H               Q.    E Q    Q      W
|--------20-20-(20)-----------|-20----20sx\------|---------------|
|-----------------------------|------------------|---------------|
|-----17----------------------|------------------|---------------|
|-----------------------------|------------------|---------------|
|-----------------------------|------------------|---------------|
|-----------------------------|------------------|---------------|
|
|  ~~~~~~~~~~~~~~~~~~~~~~~
|  H.                 +E  a E    H       Q    Q      H      H
|-----------------------------|------------------|---------------|
|-------------------------8-8-|------------------|-/11----/11----|
|-------------------------8h9-|------------------|-/12----/12----|
|-10-----------------(10)-----|--------------10--|---------------|
|-----------------------------|------------------|---------------|
|-----------------------------|------------------|---------------|


                                   ~~~~~~~
    W                    E   E  E  E  +H               a  E E E  a  E  Q   Q
|---------------------|--------20-20-(20)-----------|-20-18-----20s18-18-------|
|---------------------|-----------------------------|--------------------------|
|---------------------|-----17----------------------|--------------------------|
|---------------------|-----------------------------|--------------------------|
|---------------------|-----------------------------|--------------------------|
|---------------------|-----------------------------|--------------------------|
|
|                        ~~~~~~~~~~~~~~~~~~~~~~~
|         |-3--|
|   H     E  E E  E E    H.                 +E  a E       H            Q   Q
|---------------------|-----------------------------|--------------------------|
|-/11-----------------|-------------------------8-8-|--------------------------|
|-/12----12s10p8------|-------------------------8h9-|--------------------------|
|----------------10p8-|-10-----------------(10)-----|---------------------10---|
|---------------------|-----------------------------|--------------------------|
|---------------------|-----------------------------|--------------------------|


  F7
    W               W                    E   E     Q   Q       E     E
|---------------|---------------------|-----18b19-18-------------------|
|---------------|---------------------|---------------18b20---18----16-|
|---------------|---------------------|--------------------------------|
|---------------|---------------------|--------------------------------|
|---------------|---------------------|--------------------------------|
|---------------|---------------------|--------------------------------|
|
|                                        ~~~~~~~~~~~~~~~~~~~~~~~~~
|                         |-3--|
|   H      H        H     E  E E  E E    H.                   +E  a  E
|---------------|---------------------|--------------------------------|
|-/11----/11----|-/11-----------------|---------------------------8--8-|
|-/12----/12----|-/12----12s10p8------|---------------------------8h=9-|
|---------------|----------------10p8-|-10-------------------(10)------|
|---------------|---------------------|--------------------------------|
|---------------|---------------------|--------------------------------|


                                G7                F7
   E  E  E  E     E    E  E E     Q   Q    H        W
|---------------------------x-|---x\------------|------------------------|
|----------16b17-16b17------x-|---x\------------|------------------------|
|-17-16-17--------------------|-----------------|------------------------|
|-----------------------------|-----------------|------------------------|
|-----------------------------|-----------------|------------------------|
|-----------------------------|-----------------|------------------------|
|
|                                                         |-3--|
|  H              Q       Q       H        H        H     E  E E  E E
|-----------------------------|-----------------|------------------------|
|-----------------------------|-/11------/11----|-/11--------------------|
|-----------------------------|-/12------/12----|-/12----12s10p8---------|
|------------------------10---|-----------------|----------------10p8----|
|-----------------------------|-----------------|------------------------|
|-----------------------------|-----------------|------------------------|


  C7
                                         ~~~~~~~
   Q    a  H.                E     E  E  E  +E   E  E  E
|-------------------------|-11b12------------------11-13b15-||
|------11h13--------------|-------13----13-(13)-13----------||
|-------------------------|----------12---------------------||
|-------------------------|---------------------------------||
|-------------------------|---------------------------------||
|-------------------------|---------------------------------||
|
|  ~~~~~~~~~~~~~~~~~~~
|  H.             +E  a E    H               Q      Q
|-------------------------|---------------------------------||
|---------------------8-8-|---------------------------------||
|---------------------8h9-|---------------------------------||
|-10-------------(10)-----|------------------------10-------||
|-------------------------|---------------------------------||
|-------------------------|---------------------------------||


 Guitar Solo
  C7
                                                              ~~
    Q       Q   Q  E  E        Q        E  E     E  E  E E    Q    E  S  S E E  E E
|-(13)b15------------13b15-|-(13)b15---13-13b15-13-11------|------11---------8------|
|--------------------------|--------------------------13---|-13------13p11s8---10-8-|
|--------------------------|-------------------------------|------------------------|
|--------------------------|-------------------------------|------------------------|
|--------------------------|-------------------------------|------------------------|
|--------------------------|-------------------------------|------------------------|
|
|   E     E E E H              E     E  E  E     H            E E  E  E    H
|--------------------------|-------------------------------|------------------------|
|--------------------------|-------------------------------|------------------------|
|--------------------------|-------------------------------|------------------------|
|---8---------8------------|---8-----------8---------------|--8-------8-------------|
|---7---------7------------|---7-----------7---------------|--7-------7-------------|
|--------------------------|-------------------------------|------------------------|


                                  F7
                                                         ~~~
   E    E  E E E  Q      +E        H.             E      E
|-10b12-8------8-11b13--(11)b13-|-11b13----------11b11.5-8-|
|---------10-8------------------|--------------------------|
|-------------------------------|--------------------------|
|-------------------------------|--------------------------|
|-------------------------------|--------------------------|
|-------------------------------|--------------------------|
|
|  E    E  E E H                   E    E E E H
|-------------------------------|--------------------------|
|-------------------------------|--------------------------|
|-------------------------------|--8--------8--------------|
|--8---------8------------------|--7--------7--------------|
|--7---------7------------------|--------------------------|
|-------------------------------|--------------------------|


                          C7
 ~~~
  Q    E E  E    E  E E   E  E E  E      E  E  E E
|-8--------10b12-8------|-8------------------------|
|-----10-8---------10-8-|---11p8-------------------|
|-----------------------|--------10b12-(10)-8------|
|-----------------------|---------------------10---|
|-----------------------|--------------------------|
|-----------------------|------------------------8-|
|
| E E  E E  H             E  E E  E      H
|-----------------------|--------------------------|
|-----------------------|--------------------------|
|-8------8--------------|--------------------------|
|-7------7--------------|-8-------8----------------|
|-----------------------|-7-------7----------------|
|-----------------------|--------------------------|


                            G7
                                                  ~~
  a E  E  E a E  E  E E E    E    E E  E  E E  E  E
|-------------------------|---------8---------------|
|-8------10-8-8-------8---|-------8-8----10-8-------|
|-8h9----10-8h9-------8-9-|-10b11--------10-9-------|
|-----10--------10-10-----|-------------------10----|
|-------------------------|----------------------10-|
|-------------------------|-------------------------|
|
|   E  E  E   E  H           E    E E  E  H
|-------------------------|-------------------------|
|-------------------------|-------------------------|
|-------------------------|-10--------10------------|
|---8---------8-----------|--9---------9------------|
|---7---------7-----------|-------------------------|
|-------------------------|-------------------------|


  F7                          C7
    E   E E E E  E  E  E        E  E  E a E  E  E E  E
|---------------------------|------8--------------8-(8)--|
|---------------10-10-10b11-|-(10)-8----8-8----10-8-(8)--|
|-------------8-10-10-10b11-|-(10)-8----8h9----10-8h=9---|
|---------8-9---------------|--------10-----10-----------|
|-(10)-10-------------------|----------------------------|
|---------------------------|----------------------------|
|
|   E   E E E H                 E  E  E   E  H
|---------------------------|----------------------------|
|---------------------------|----------------------------|
|---8-------8---------------|----------------------------|
|---7-------7---------------|---8---------8--------------|
|---------------------------|---7---------7--------------|
|---------------------------|----------------------------|


                  ~~~~~~~
   E  T T T T  E  E  +E   E E  E    E E  E  E      E  E  E  E
|-(8)-8--------------------------|----8---------------8-------|
|-(8)---8------------------------|----8-10-10b11-(10)-8-------|
|-(9)-----x----------------------|-10-8-10-10b11-(10)-8-------|
|-----------x---------------8----|----------------------10-10-|
|-------------10-10-(10)-10---10-|----------------------------|
|--------------------------------|----------------------------|
|
|  E  E        E  E   H             E E  E  E      H
|--------------------------------|----------------------------|
|--------------------------------|----------------------------|
|--------------------------------|----------------------------|
|--8--------------8--------------|--8-------8-----------------|
|--7--------------7--------------|--7-------7-----------------|
|--------------------------------|----------------------------|


  E  E Q   H      E  E E  E  E  E      E  E
|-8-10----------|----------------------------|
|-8-10----------|------8-10-10-10b11-(10)-8--|
|-8-10----------|------8-10-10-10b11-(10)-8--|
|---------------|---10-----------------------|
|---------------|----------------------------|
|---------------|----------------------------|
|
| E  E E E H      E  E E  E  H
|---------------|----------------------------|
|---------------|----------------------------|
|---------------|----------------------------|
|-8------8------|-8-------8------------------|
|-7------7------|-7-------7------------------|
|---------------|----------------------------|


                      F7
                        |-3-|
   E E  E E E E E E   E S S S E E E  Q   E
|-------------------|---8------------------|
|-------------------|-----8----------------|
|---------8s9-------|-------x--------------|
|-10-8-10-7s8-------|---------x---8-10--10-|
|-------------------|----------------------|
|-----------------8-|-8---------8----------|
|
|  E E  E E H         E E     E E H
|-------------------|----------------------|
|-------------------|----------------------|
|-------------------|-8---------8----------|
|--8------8---------|-7---------7----------|
|--7------7---------|----------------------|
|-------------------|----------------------|


                               C7
       |-3-|                      |-3-|
    E  S S S  E  E E  E  E E    E S S S  E E E  E E E
|------8---------------------|----8-------------------|
|--------8-------------------|------8-----------------|
|----------x-----------------|--------x---------------|
|-(10)-------10-10-8-10-10---|-10-------10---8-10---8-|
|----------------------------|------------------------|
|--------------------------8-|-------------8------8---|
|
|   E  E      E  E H            E E      E E H
|----------------------------|------------------------|
|----------------------------|------------------------|
|---8------------8-----------|------------------------|
|---7------------7-----------|--8----------8----------|
|----------------------------|--7----------7----------|
|----------------------------|------------------------|


                             G7
   E  E  E  E  +E   E  E E    E  E E  E  E E  E  E
|--------------------------|-----------------------|
|--------------------------|-----------------------|
|--------------------------|-----------------------|
|-10-10-10-10-(10)-10-10---|-10-10---10-10---10-10-|
|--x--x--x--x--(x)--x--x---|-----------------------|
|--8--8--8--8--(8)--8--8-8-|-------8-------8-------|
|
|  E  E  E  E   H             E  E E  E  H
|--------------------------|-----------------------|
|--------------------------|-----------------------|
|--------------------------|-10------10------------|
|--8--------8--------------|--9-------9------------|
|--7--------7--------------|-----------------------|
|--------------------------|-----------------------|


  F7                        C7
   +E   E  E E  E  E Q    a E  E  E a E  E  E  E a E
|-----------------------|-----------------------------|
|-----------------------|-8------10-8-8-------10-8-8--|
|-----------------------|-8h9----10-8h9-------10-8h9--|
|-(10)-10-10---10-10----|-----10--------10-10---------|
|-----------------------|-----------------------------|
|------------8-------8--|-----------------------------|
|
|   E   E  E E  H           E  E  E   E  H
|-----------------------|-----------------------------|
|-----------------------|-----------------------------|
|---8--------8----------|-----------------------------|
|---7--------7----------|---8---------8---------------|
|-----------------------|---7---------7---------------|
|-----------------------|-----------------------------|


                               Interlude
                                C9
                            Gtr II
   W                             Q   E Q.       Q
                                       |
                                       /

                            Gtrs I, IV
   E  T T T T  E  E E E E E      Q   E E   E E  E E
|-----8---------------8---8-||--(8)--8-8----------8-|
|-(8)---8-------------8---8-||o-(8)--8-8----------8-|
|-(9)-----x-----------------||-------8h9------------|
|-----------x---------------||------------10-8-10---|
|-------------10-10---------||o-----------------x---|
|---------------------------||------------------8---|
|
|  E  E        E  E H            W
|---------------------------||----------------------|
|---------------------------||o---------------------|
|---------------------------||----------------------|
|--8--------------8---------||----------------------|
|--7--------------7---------||o---------------------|
|---------------------------||----------------------|


   Q    E   Q.       Q      Q    E   Q.       Q
            |                        |
            /                        /

   Q    E a E   E E  E E    Q    E a E   E E  E E
|-(8)--10-8-8----------8-|-(8)--10-8-8----------8--|
|-(8)--10-8-8----------8-|-(8)--10-8-8----------8--|
|------10-8h9------------|------10-8h9-------------|
|--------------10-8-10---|--------------10-8-10----|
|--------------------x---|--------------------x----|
|--------------------8---|--------------------8----|
|
|  W                        W
|------------------------|-------------------------|
|------------------------|-------------------------|
|------------------------|-------------------------|
|------------------------|-------------------------|
|------------------------|-------------------------|
|------------------------|-------------------------|


                        F9
   Q   E Q.       Q      Q    E Q.       Q
         |                      |
         /                      /

   Q   E E   E E  E E    Q    E E   E E  E E
|-(8)--8-8----------8-|-(8)--10-8----------8-|
|-(8)--8-8----------8-|-(8)--10-8----------8-|
|------8h9------------|------10-8------------|
|-----------10-8-10---|------------10-8-10---|
|-----------------x---|------------------x---|
|-----------------8---|------------------8---|


                         C9
   Q    E Q.       Q      Q    E   Q.       Q
          |                        |
          /                        /

   Q    E E   E E  E E    Q    E a E   E E  E E
|-(8)--10-8----------8-|-(8)--10-8------------8--|
|-(8)--10-8----------8-|-(8)--10-8------------8--|
|------10-8------------|------10-8h9-------------|
|------------10-8-10---|--------------10-8-10----|
|------------------x---|--------------------x----|
|------------------8---|--------------------8----|


                           G9
   Q    E   Q.       Q      Q    E   Q.       Q
            |                        |
            /                        /

   Q    E a E   E E  E E    Q    E a E   E E  E E
|-(8)--10-8------------8-|-(8)--10-8-8----------8-|
|-(8)--10-8------------8-|-(8)--10-8-8----------8-|
|------10-8h9------------|------10-8h9------------|
|--------------10-8-10---|--------------10-8-10---|
|--------------------x---|--------------------x---|
|--------------------8---|--------------------8---|


                          1.
  F9                       C9
   Q    E   Q.       Q      Q    E   Q.       Q
            |                        |
            /                        /

   Q    E a E   E E  E E    Q    E a E   E E  E E
|-(8)--10-8-8----------8-|-(8)--10-8-8----------8-|
|-(8)--10-8-8----------8-|-(8)--10-8-8----------8-|
|------10-8h9------------|------10-8h9------------|
|--------------10-8-10---|--------------10-8-10---|
|--------------------x---|--------------------x---|
|--------------------8---|--------------------8---|


                            2.
  C9                         C9
   Q    E   Q.       Q        Q    E Q.       Q
            |                        |
            /                        /

   Q    E a E   E E  E E      Q    E E   E E  E  E
|-(8)--10-8-8----------8--||-(8)-------------------|
|-(8)--10-8-8----------8-o||-(8)--10-x--10-8-------|
|------10-8h9-------------||------10-x--10-8-------|
|--------------10-8-10----||-----------------10-10-|
|--------------------x---o||-----------------------|
|--------------------8----||-----------------------|


                                     Outro
                                      C9
    Q          E  Q.          Q       E     E Q  H
                  |                   |
                  /                   /

  a E T T T T  E  E   +E   E  E  E    W
|-8-8-8----------------------------||-----------------|
|-8-8---8--------------------------||-----------------|
|-8h9-----x------------------------||-----------------|
|-----------x----------------------||-----------------|
|-------------10-10--(10)-10-10-10-||-8tr10-----------|
|----------------------------------||-----------------|


            F5          F9
    H     E  Q.         E E E E H         E E E E H
             |          |     |           |     |
             /          /     /           /     /

    ~~~~                                                   ~~
    H     E  E   +Q     E E E E E E E E   E E E E E E      Q
|---------------------|-8-----8---x-x-x-|-8-x-x-8-------------|
|---------------------|-8-----8---x-x-x-|-8-x-x-8-------------|
|---------------------|-8-----8---x-x-x-|-8-x-x-8-------------|
|---------------------|-----------------|-----------8tr10-10--|
|-(10)----8h10--(10)--|-----------------|---------------------|
|---------------------|-----------------|---------------------|


  C9                                 Ab9
  E E E  E H          E E E  E Q   E  E
  |      |            |      |        |
  /      /            /      /        /

  Q   E  E E E E E    E E E  E E E E  E
|--------8---x-x-x-|--8-x-x--8---x-x-11s|
|-------10---x-x-x-|-10-x-x-10---x-x-11s|
|--------9---x-x-x-|--9-x-x--9---x-x-11s|
|------------------|-----------------10s|
|------------------|--------------------|
|-8----------------|--------------------|


  G9          Gb9         C9                 DbC9
                                        2/4
   W          H    H      W              Q   E E
   |          |    |      |                  | |
   /          /    /      /                  / /

                                               TP
   W          H    H      W              E E E E
|-10--------|-9---------|--------------|-x---9-8-|
|-10--------|-9---------|--------------|-x---9-8-|
|-10--------|-9---------|--------------|---------|
|--9--------|-8---------|--------------|---------|
|-----------|-----------|-8tr10--------|---------|
|-----------|------9----|--------------|---------|


 4/4
   H.      Q    Q    H.              +W
   |       |    |    |                |
   /       /    /    /                /

   TP
   W            E  E E  E E  E E E    E Q.    E Q  E
|-(8)---------:--------------------:-----------------:
|-(8)---------:--------------------:-----------------:
|-------------:--------------------:-----------------:
|-------------:-----------8h10-----:-10-8------------:
|-------------:------8h10----------:---------10-8--6-:
|-------------:-8h10-----------8---:-----------------:


  H    H        W                          Q  Q  H
  |    |        |                          |
  /    /        /                          /

  W             H       +Q     E     E     Q  Q  H
|-----------:----------------------------:------------*|
|-----------:-([6])----([6])--[6]---[6]--:------------*|
|-----------:----------------------------:------------*|
|-----------:----------------------------:------------*|
|-6---------:--(6)------(6)---(6)b7--6b7-:------------*|
|-----------:----------------------------:-8----------*|



Duration Legend
---------------
W - whole; H - half; Q - quarter; E - 8th; S - 16th; T - 32nd; X - 64th; a - acciaccatura
+ - note tied to previous; . - note dotted; .. - note double dotted
Uncapitalized letters represent notes that are staccato (1/2 duration)
Irregular groupings are notated above the duration line
Duration letters will always appear directly above the note/fret number it represents the
duration for.  Duration letters with no fret number below them represent rests.  Multi-
bar rests are notated in the form Wxn, where n is the number of bars to rest for.  Low
melody durations appear below the staff

Tablature Legend
----------------
 h   - hammer-on
 p   - pull-off
 b   - bend
 pb  - pre-bend
 r   - bend release (if no number after the r, then release immediately)
 /\  - slide into or out of (from/to "nowhere")
 s   - legato slide
 S   - shift slide
 - natural harmonic
[n]  - artificial harmonic
n(n) - tapped harmonic
 ~   - vibrato
 tr  - trill
 T   - tap
 TP  - trem. picking
 PM  - palm muting
\n/  - tremolo bar dip; n = amount to dip
 \n  - tremolo bar down
 n/  - tremolo bar up
/n\  - tremolo bar inverted dip
 =   - hold bend; also acts as connecting device for hammers/pulls
 <> - volume swell (louder/softer)
 x   - on rhythm slash represents muted slash
 o   - on rhythm slash represents single note slash

Misc Legend
-----------
 |  - bar
||  - double bar
||o - repeat start
o|| - repeat end
*|  - double bar (ending)
 :  - bar (freetime)
 $  - Segno
 &  - Coda
Tempo markers -  = BPM(8/16=s8/s16), where s8 = swing 8ths, s16 = swing 16ths

comments
We did not receive enough feedback on this tab! Please rate:
print report bad tab
1 2 3 4 5
I want to post or [tab]
guest
You may want to rate the tab now too:
select rating
Please do not post tabs as comments. Select "correction" instead!