Oops, an error
Loading. Please wait.
ver1
ver1

Whole song

Interactive

More versions @911Tabs.com
922 views 1 this week
no commentswrite comment
1 2 3 4 5
please rate
Autoscroll
+/-
esc
set tempo
stop
Contributor
Hey! There's an official Ultimate Guitar app which is ideal
for learning songs when you're away from computer. Get the app
WARNING: You are trying to view
                                    content from Ultimate-Guitar.com
                                    in an unauthorized application,
                                    which is prohibited.

                                    Please use an official Ultimate
                                    Guitar Tabs application for iPhone,
                                    iPad or Android to access legitimate
                                    chords, guitar, bass, and drum tabs
                                    from Ultimate-Guitar.com database.

                                    Type "ultimate guitar tabs" in Apple
                                    App Store's or Android Market's
                                    search to find the application.
#----------------------------------PLEASE NOTE---------------------------------#
#This file is the author's own work and represents their interpretation of the #
#song. You may only use this file for private study, scholarship, or research. #
#------------------------------------------------------------------------------#

I'M CRYIN'
As recorded by Stevie Ray Vaughan
(From the 1983 Album TEXAS FLOOD)

Transcribed by prusche
        

Words and Music by Stevie Ray Vaughan

Gtr I (E A D G B E) - 'Untitled'

 Intro
  Q=120(8=s8)
 4/4
  Gtr I
                      |----3----|
  Q  E  E a    +E   E E    +E   E   E  E E  E E  E E  E
|------!0-----------0-3b4==(3)r-0-|---!0---!0---!0---!0-|
|------!0-3b4==(3)r-------------0-|---!0---!0---!0---!0-|
|------!0-------------------------|---!0---!0---!0---!0-|
|---------------------------------|---------------------|
|---------------------------------|-----------2----4----|
|---------------------------------|-0----3h!4-----------|


       |----3----| |----3----| |----3----|
  E  E E.   +S   E E.   +S   E E    +E   E
|---!0-3b4==(3)r-0-----------0-----------0-|
|---!0-------------3b4==(3)r-------------0-|
|---!0-------------------------2b4==(2)r---|
|-2----------------------------------------|
|------------------------------------------|
|------------------------------------------|


                                        |----3----|   |----3----|
  E    E E E E E  E  E   E  E a E E E E E.   +S   E   E    +E   E E E E E E E
|------0---0---0--2----|-0-!0---------0-----------0-|-3b4==(3)r-0-------------|
|------0---0---0--2----|-0-!0-----0---0-3b4==(3)r-0-|-----------0-------------|
|-0tr1-0---0---0--2----|-1-!0-----0---0-------------|-----------0-------------|
|------0---------(2)---|-2-!0-----0-----------------|-----------------2-2-4-0-|
|------------2-------2-|------x---x-2---------------|-------------3-4-0-0-0-0-|
|--------3h4---------0-|--------3h4-----------------|-------------------------|


      |----3----| |----3----|       |---3----|
  E E E.   +S   E E.   +S   E a    +E  +S  S E
|-----3b4==(3)r-0-----------0------------------|
|---------------0-3b4==(3)r-0------------------|
|-----------------------------2b4==(2)r(2)p0---|
|-2------------------------------------------2-|
|-0-0------------------------------------------|
|----------------------------------------------|


  |-3-|         |----3----|                  |----3----|
  E E E E E E e E    +E   E   E    E E E E E E.   +S   E
|-------------0-----------0-|------0-------0-----------0-|
|-------------0-----------0-|------0-------0-3b4==(3)r---|
|-0h1---------0-2b4==(2)r-0-|-0tr1-0-------0-------------|
|---------------------------|------0---------------------|
|-----2-4-4-2---------------|------0-----2---------------|
|-----0-0-0-0---------------|--------3h4-----------------|


  |-3-|   |--3--| |-3-| |-3--|
  E E E a E S S E E E E S E. E
|-3-0-------0------------------|
|-----0-------3----------------|
|-------2s4-----4-2-0----------|
|---------------------2--------|
|-----------------------0h2--2-|
|------------------------------|


  |-3-|  |-3--| |--3--| |-3-|         |-3-| |-3-|   |-3-|
  E E E +E  E E E S S E E E E   E E a E E E E E E a E E E
|-----------------------------|---0---0-0-0-0-0-0---------|
|-----------------------------|---0-1s3-3-3-3-3-3---------|
|-----------------------------|---0-2s4-----------4s2-0---|
|-0-1-2-(2)-----------------2-|-------------------------2-|
|-----------2-1-0h1p0---0-----|---------------------------|
|---------------------3---3---|-0-------------------------|


                        Verse
          ~~~~~~
      |-3-|
  E E E E E +E  E E E    E E E E E E E E   E E E E E E E E
|---------------0-x-0-||-x-0-x-0-x-0-x-0-|-x-0-x-0-x-0-x-0-|
|---------------0-x-0-||-x-0-x-0-x-0-x-0-|-x-0-x-0-x-0-x-0-|
|---------------0-x-0-||-x-0-x-0-x-0-x-0-|-x-0-x-0-x-0-x-0-|
|---------------------||-----------------|-----------------|
|-----0-1-2-(2)-------||-----------------|-----------------|
|-0-3-----------------||-----------------|-----------------|


                                               |----3-----|
  E E E E E E E E   E E E E E E E E   E E E E +E  +E      E E E
|-x-0-x-0-x-0-x-0-|-x-0-x-0-x-0-x---|-----3-3-(3)-(3)b3.5---3-3-|
|-x-0-x-0-x-0-x-0-|-x-0-x-0-x-0-x-2-|-x-2-2-2-(2)-(2)b2.5---2-2-|
|-x-0-x-0-x-0-x-0-|-x-0-x-0-x-0-x-2-|-x-2-2-2-(2)-(2)b2.5-2-2-2-|
|-----------------|---------------2-|-x-2-----------------2-----|
|-----------------|-----------------|---0-----------------0-----|
|-----------------|-----------------|---------------------------|


   |----3-----|                   |-3-|  |--3---| |-3-|
  +E  +E      E E E E E E E   E E E E E  Q  S T T E E E
|-(3)-(3)b3.5-0-x-0-x-0-x---|---0--------0--0-----------|
|-(2)-(2)b2.5-0-x-0-x-0-x---|---0-----3--3----3---------|
|-(2)-(2)b2.5-0-x-0-x-0-x---|---0-2s4---(4)-----4s2p0---|
|---------------------------|-------------------------2-|
|-------------------------x-|-x-------------------------|
|-------------------------x-|-x-------------------------|


  |3| |----3----|
  E Q E    +E.  S E    E E E
|---0-----------0------0-x-0-|
|-----3b4==(3)r-0------0-x-0-|
|-----------------0tr1-0-x-0-|
|----------------------------|
|----------------------------|
|-0--------------------------|


                                          |-3-| |--3--| |-3-|
  E E E E E E E E   E E E E E E E E   E E E E E Q S T T E E E
|-x---------0-2-0-|---0-x-0-x-0-x-0-|-x-0-------0-0-----------|
|-x-0-x-0-x-0-2-0-|-2-0-x-0-x-0-x-0-|-x-0-----3-3---3---------|
|-x-2-x-2-x-2-2-0-|-2-0-x-0-x-0-x-0-|-x-0-2s4---4-----4s2p0---|
|---1-x-1-x-1-----|-2---------------|-----------------------2-|
|---2-x-2-x-2-----|-0---------------|-------------------------|
|-----------------|-----------------|-------------------------|


                        Verse
          ~~~~~~
      |-3-|
  E E E E E +E  E E E    E E E E E E E E   E E E E E E E E
|---------------0-x-0-||-x-0-x-0-x-0-x-0-|-x-0-x-0-x-0-x-0-|
|---------------0-x-0-||-x-0-x-0-x-0-x-0-|-x-0-x-0-x-0-x-0-|
|---------------0-x-0-||-x-0-x-0-x-0-x-0-|-x-0-x-0-x-0-x-0-|
|---------------------||-----------------|-----------------|
|-----0-1-2-(2)-------||-----------------|-----------------|
|-0-3-----------------||-----------------|-----------------|


                                               |----3-----|
  E E E E E E E E   E E E E E E E E   E E E E +E  +E      E E E
|-x-0-x-0-x-0-x-0-|-x-0-x-----0-x---|-----3-3-(3)-(3)b3.5---3-3-|
|-x-0-x-0-x-0-x-0-|-x-0-x-----0-x-2-|-x---2-2-(2)-(2)b2.5-2-2-2-|
|-x-0-x-0-x-0-x-0-|-x-0-x-----0-x-2-|-x-2-2-2-(2)-(2)b2.5-2-2-2-|
|-----------------|---------------2-|-x-2-----------------2-----|
|-----------------|-------2-x-------|---0-----------------------|
|-----------------|-------0-x-------|---------------------------|


   |----3-----|                   |-3-| |--3--| |-3-|
  +E  +E      E E E E E E E   E E E E E Q S T T E E E
|-(3)-(3)b3.5-0-x-0-x-0-x-0-|-x-0-------0-0-----------|
|-(2)-(2)b2.5-0-x-0-x-0-x-0-|-x-0-----3-3---3---------|
|-(2)-(2)b2.5-0-x-0-x-0-x-0-|-x-0-2s4---4-----4s2p0---|
|---------------------------|-----------------------2-|
|---------------------------|-------------------------|
|---------------------------|-------------------------|


   |3-| |----3----|
   E  Q E    +E.  S E     E  E E
|-----0-----------0-------0--x-0-|
|-------3b4==(3)r-0-------0--x-0-|
|-------------------0tr1--0--x-0-|
|-(2)--------------------(0)-----|
|--------------------------------|
|--0-----------------------------|


                                          |-3-| |--3--| |-3-|
  E E E E E E E E   E E E E E E E E   E E E E E Q S T T E E E
|---2-x-2-x-2-2-0-|---0-x-0-x-0-x-0-|-x-0-------0-0-----------|
|---x-x-x-x-x-2-0-|-2-0-x-0-x-0-x-0-|-x-0-----3-3---3---------|
|---2-x-2-x-2-2-0-|-2-0-x-0-x-0-x-0-|-x-0-2s4---4-----4s2p0---|
|---1-x-1-x-1-----|-2---------------|-----------------------2-|
|-2---------------|-0---------------|-----------------------2-|
|-----------------|-----------------|-------------------------|


                        Verse
          ~~~~~~
      |-3-|
  E E E E E +E  E E E    E E Q  E E E E
|---------------0-x-0-||-x--------0-x-0-|
|---------------0-x-0-||-x--------0-x-0-|
|---------------0-x-0-||-x--------0-x-0-|
|---------------------||----------------|
|-----0-1-2-(2)-------||----------------|
|-0-3-----------------||----------------|


                     |-3--|
  E E Q  E a    +E  +E  E E   e E Q  H
|-x-------------------------|-------------|
|-x-------------------------|-------------|
|-x--------2b4==(2)r(2)p0---|-------------|
|-------------------------2-|-------------|
|---------------------------|-------------|
|---------------------------|-0-----------|


                          |----3-----|        |----3-----|
  H    E E E E   E E E E +E  +E      E E E   +E  +E      E E E E E E E
|--------0-x-0-|-----3-3-(3)-(3)b3.5---3-3-|-(3)-(3)b3.5-0-x-0-x-0-x---|
|--------0-x-0-|-----2-2-(2)-(2)b2.5-2-2-2-|-(2)-(2)b2.5-0-x-0-x-0-x---|
|--------0-x-0-|---2-2-2-(2)-(2)b2.5-2-2-2-|-(2)-(2)b2.5-0-x-0-x-0-x-0-|
|--------------|-2-2-----------------2-----|-------------------------0-|
|--------------|-0-0-----------------------|-------------------------0-|
|--------------|---------------------------|---------------------------|


      |-3-| |--3--| |-3-|   |-3-| |----3----|
  E E E E E Q S T T E E E   E E E E    +E.  S E     E  E E   E E E E E E E E
|---0-------0-0-----------|-----0-----------0-------0--x-0-|-x---------0-2-0-|
|---0-----3-3---3---------|-------3b4==(3)r-0-------0--x-0-|-x-0-x-0-x-0-2-0-|
|-x-0-2s4---4-----4s2p0---|-0h1---------------0tr1--0--x-0-|-x-2-x-2-x-2-2-0-|
|-x---------------------2-|------------------------(0)-----|---1-x-1-x-1-----|
|-x-----------------------|--------------------------------|---2-x-2-x-2-----|
|-------------------------|--------------------------------|-----------------|


                          |-3-| |--3--| |-3-|
   E  E E E E E E E   E E E E E Q S T T E E E   a E E E E +E  E E E
|-(2)-0-x-0-x-0-x-0-|-x-0-------0-0-----------|-------3-2-(2)-2-2-0--||
|--2--0-x-0-x-0-x-0-|-x-0-----3-3---3---------|-------3-2-(2)-2-2-0--||
|--2--0-x-0-x-0-x-0-|-x-0-2s4---4-----4s2p0---|-0h1---3-2-(2)-2-2-0--||
|--2----------------|-----------------------2-|-----0-2-1-(1)--------||
|-------------------|-------------------------|-----0----------------||
|-------------------|-------------------------|-----0----------------||


 Guitar Solo
  |--3--| |-3-| |-3-| |-3-|   |--3--| |-3-| |-3-| |-3-|
  S S E E E E E E E E E E E   S S E E E E E E E E E E E
|-----0-0-0-0-0-0-0-0-0-0-0-|-----0-0-0-0-0-0-0-0-0-0-0-|
|-2s3-3-3-3-3-3-3-3-3-3-3-3-|-2s3-3-3-3-3-3-3-3-3-3-3-3-|
|-3s4-4-4-4-4-4-4-4-4-4-4-4-|-3s4-4-4-4-4-4-4-4-4-4-4-4-|
|---------------------------|---------------------------|
|---------------------------|---------------------------|
|---------------------------|---------------------------|


  |--3--| |-3-| |-3-| |-3-|
  S S E E E E E E E E E E E
|-----0-0-0-0-0-0-0-0-0-0-0--|
|-2s3-3-3-3-3-3-3-3-3-3-3-3--|
|-3s4-4-4-4-4-4-4-4-4-4-4-4--|
|----------------------------|
|----------------------------|
|----------------------------|


    |-3-|   |-3-|   |-3-| |-3-|   |---3---|  |-3-|   |--3--| |-3-|
  a E E E a E E E a E E E E E E   E E    +E  E E E a E S S E E E E
|-------------------------------|---3b4==(3)r3-0-------0-----------|
|-3h5-3---3h5-3---3h5-3-----0---|------------3-0-0-------3---------|
|-------4-------4-------4-2p0---|----------------0-2s4-----4s2p0---|
|-----------------------------2-|-2------------------------------2-|
|-------------------------------|-0--------------------------------|
|-------------------------------|----------------------------------|


  |-3--| |--3--| |-----3-----| |-----3-----|     |-3-| |-3-| |---3---|   |-3-|
  E  E E E  E  E S    +S   E E S    +S   E E   a E E E E E E E E    +E   E E E
|--------5-(5)-5-----------5-5-----------5---|-------------0-------------0---0-|
|------5----5--5-8b9==(8)r-5-5-8b9==(8)r-5-5-|-----------------3b4==(3)r-0-0---|
|---/6---------------------------------------|-7s2p0---0h1---------------------|
|-0------------------------------------------|-------2-------------------------|
|--------------------------------------------|---------------------------------|
|--------------------------------------------|---------------0-----------------|


  |-----3------|     |-3--| |-3-| |-3--|    |--3--| |-3-|   |--3--| |-3-|
  E    +E     +E  a +E. S E E E E E E  E    S S E E E E E a E S S E E E E
|-------------------------------0---0--3--|-0h2p0---0---------0-----------|
|---------------------------------3-0-(2)-|-0-----3---3p0-------3---------|
|-2b3==(2)b4==(2)-2r(2)p0---0h1-----------|---------------2s4-----4s2p0---|
|-------------------------2---------------|-----------------------------2-|
|-----------------------------------------|-------------------------------|
|-----------------------------------------|-------------------------------|
                                            Q     E Q       H
                                            |--3--|


  |-3-| |-3-|  |-3--| |--3--|
  E E E E E E +E  E E E S S E
|-----------------------------|
|-----------------------------|
|-----------------------------|
|-------0-1-2-(2)-0-----------|
|-0h2-2-------------2-0h1p0---|
|---------------------------3p|


                                      ~~~~~~~~~~
        |-3-| |-3-|   |-3-|       |-3-|  |--3---| |-3--|
  E E a E E E E E E a E E E   E E E E E +E  +E  E E  E E
|---0-----0-0-0-0-0---------|-------------------0---12-0--|
|---0-2s3-3-3-3-3-3---------|-------------------0----9-0--|
|---0-3s4-4-4-4-4-4-4s2-0---|-------------------0---11-0--|
|-2-----------------------2-|-----------------------12----|
|---------------------------|-----0-1-2-(2)-(2)-----------|
|-0-------------------------|-0-3-------------------------|


   |--3--|  |--3--|  |--3--|  |--3--|   |-3--|  |--3--|  |--3--|  |--3--|
   E  E  E  E  E  E  E  E  E  E  E  E   E  E E  E  E  E  E  E  E  E  E  E
|-12-12-12-12-12-12-12-12-12-12-12-12-|---12---12-12-12-12-12-12-12-12-12-|
|--9--9--9--9--9--9--9--9--9--9--9--9-|-0-12---12-12-12-12-12-12-12-12-12-|
|-11-11-11-11-11-11-11-11-11-11-11-11-|-0-12---12-12-12-12-12-12-12-12-12-|
|-12-12-12-12-12-12-12-12-12-12-12-12-|-0-11---11-11-11-11-11-11-11-11-11-|
|-------------------------------------|------0----------------------------|
|-------------------------------------|------0----------------------------|


  |-3--|  |--3--|     |--3--|  |--3--|
  E  E E  E  E  E  a  E  E  E  E  E  E
|---12---12-12-12-11s12-12-12-12-12-12--|
|----9----9--9--9--8s=9--9--9--9--9--9--|
|---11---11-11-11-10s11-11-11-11-11-11--|
|---12---12-12-12-11s12-12-12-12-12-12--|
|-0----0--------------------------------|
|-0----0--------------------------------|


   |-3-| |-3-| |-3-| |-3-|    |-3-|   |-3-| |-3-| |-3-|
   E E E E E E E E E E E E    E E E a E E E E E E E E E
|-12---9---7S2s4-4-4-3-2-0-|------5-4s5-5-5-7-6-5---5-5-|
|--9---------------------0-|-/5-5-5-4s5-5-5---5---8-5-5-|
|-11---9---7S2s4-4-4-3-2-0-|-/6-6---5s6-6---------------|
|-12-----------------------|----------------------------|
|----0---x-----------------|----------------------------|
|----0---x-----------------|----------------------------|


    |-3-| |-3-| |------3------| |-3-|   |-3-| |---3---|             |---3----|
  a E E E E E E S    +S   E a E E E E   E E E E E    +E   E E a    +E  +S  S E
|-----5-5-7-6-5-----------5-----------|-----0-0-----------0-0------------------|
|-3s5-5-5---5-5-8b9==(8)r-5-----------|-----0-0-3b5==(3)r-0-0-2b4==(2)r(2)p0---|
|-4s6-6---------------------6s2-0---2-|-0-1-----2b4==(2)r--------------------2-|
|---------------------------------2---|----------------------------------------|
|-------------------------------------|----------------------------------------|
|-------------------------------------|----------------------------------------|


  |-3-|  |-3--| |----3----| |-3-|        |-3--|      |-3--|
  E E E +E  E E E    +E   E E E E   E E +E  E E E E +E  E E
|-----0-(0)---------------0---0-0-|---------2-----2-(2)-2-0-|
|-----------3-0-3b5==(3)r-0-3-0-0-|---------x-----x-(x)-x-0-|
|-0h1-------------------------0-0-|---2-(2)-2---2-2-(2)-2-0-|
|-------------------------------0-|---1-(1)---1-1---------0-|
|---------------------------------|-2---------x-2-----------|
|---------------------------------|-----------x-------------|


  |---3---|   |--3--| |-3-| |-3-|
  E.    S E a E S S E E E E E E E
|-3b3.5-0-------0-----------------|
|---------3-------3---------------|
|-----------2s4-----4-2-0---------|
|-------------------------2-0-1-2-|
|---------------------------------|
|---------------------------------|


                                        ~~~~~~
          |-3-| |-3-|   |-3-|       |-3-|
   E  E a E E E E E E a E E E   E E E E E +E  E E E
|-----0-----0-0-0-0-0---------|---------------0-x-0-||
|-----0-1s3-3-3-3-3-3---------|---------------0-x-0-||
|-----0-2s4-4-4-4-4-4-4s2-0---|---------------0-x-0-||
|-(2)-----------------------2-|---------------------||
|-----------------------------|-----0-1-2-(2)-------||
|--0--------------------------|-0-3-----------------||


 Verse
  E E Q  E E E E   E E Q  E E E E   E E Q  H      H    E E E E
|-x--------0-x-0-|-x--------0-x-0-|-x-----------|--------0-x-0--|
|-x--------0-x-0-|-x--------0-x-0-|-x-----------|--------0-x-0--|
|-x--------0-x-0-|-x--------0-x-0-|-x-----------|--------0-x-0--|
|----------------|----------------|-------------|---------------|
|----------------|----------------|-------------|---------------|
|----------------|----------------|-------------|---------------|


           |----3-----|
  E E E E +E  +E      E E E
|-x---3-3-(3)-(3)b3.5---3-3-|
|-x-2-2-2-(2)-(2)b2.5-2-2-2-|
|-x-2-2-2-(2)-(2)b2.5-2-2-2-|
|---2-----------------2-----|
|---0-----------------------|
|---------------------------|


   |----3-----|                   |-3-| |--3--| |-3-|
  +E  +E      E E E E E E E   E E E E E Q S T T E E E
|-(3)-(3)b3.5-0-x-0-x-0-x-0-|-x-0-------0-0-----------|
|-(2)-(2)b2.5-0-x-0-x-0-x-0-|-x-0-----3-3---3---------|
|-(2)-(2)b2.5-0-x-0-x-0-x-0-|-x-0-2s4---4-----4s2p0---|
|---------------------------|-----------------------2-|
|---------------------------|-------------------------|
|---------------------------|-------------------------|


  |-3-| |----3----|
  E E E E    +E.  S E     E  E E   E E E E E E E E   E E E E E E E E
|-----0-----------0-------0--x-x-|-x---------0-2-0-|---0-x-0-x-0-x-0-|
|-------3b4==(3)r-0-------0--x-x-|-x-------0-0-2-0-|-2-0-x-0-x-0-x-0-|
|-0h1---------------0tr1--0--x-x-|-x-x-x-x-0-0-2-0-|-2-0-x-0-x-0-x-0-|
|------------------------(0)-----|---x-x-x-0-------|-2---------------|
|--------------------------------|---x-x-x---------|-0---------------|
|--------------------------------|-----------------|-----------------|


                                                Verse
      |-3-| |--3--| |-3-|
  E E E E E Q S T T E E E   E E E E +E  E E E    E E E E E E E E
|-x-0-------0-0-----------|-----3-2-(2)-0-x-0-||-x-0-x-0-x-0-x-0-|
|-x-0-----3-3---3---------|-----3-2-(2)-0-x-0-||-x-0-x-0-x-0-x-0-|
|-x-0-2s4---4-----4s2p0---|-----3-2-(2)-0-x-0-||-x-0-x-0-x-0-x-0-|
|-----------------------2-|-2-0-2-1-(1)-------||-----------------|
|-------------------------|---0---------------||-----------------|
|-------------------------|---0---------------||-----------------|


                      |-3--|
  E E E E E a    +E  +E  E E   E E E E E E E E   E E E E E E E E
|-x-0-x-0-x----------------0-|-x-0-x-0-x-0-x-0-|-x-0-x-0-x-0-x-0-|
|-x-0-x-0-x--------------0-0-|-x-0-x-0-x-0-x-0-|-x-0-x-0-x-0-x-0-|
|-x-0-x-0-x-2b4==(2)r(2)p0-0-|-x-0-x-0-x-0-x-0-|-x-0-x-0-x-0-x-0-|
|----------------------------|-----------------|-----------------|
|----------------------------|-----------------|-----------------|
|----------------------------|-----------------|-----------------|


           |----3-----|
  E E E E +E  +E      E E E
|-----3-3-(3)-(3)b3.5---3-3-|
|-0---2-2-(2)-(2)b2.5-2-2-2-|
|-0-2-2-2-(2)-(2)b2.5-2-2-2-|
|---2-----------------2-----|
|---0-----------------------|
|---------------------------|


   |----3-----|                   |-3-| |--3--| |-3-|
  +E  +E      E E E E E E E   E E E E E Q S T T E E E
|-(3)-(3)b3.5-0-x-0-x-0-x-0-|-x-0-------0-0-----------|
|-(2)-(2)b2.5-0-x-0-x-0-x-0-|-x-0-----3-----3---------|
|-(2)-(2)b2.5-0-x-0-x-0-x-0-|-x-0-2s4---------4s2p0---|
|---------------------------|-----------------------2-|
|---------------------------|-------------------------|
|---------------------------|-------------------------|


  |-3-| |----3----|
  E E E E    +E.  S E     E  E E   E E E E E E E E   E E E E E E E E
|-----0-----------0-------0--x-0-|---x-x-x-x-x-2-0-|-----------------|
|-----0-3b4==(3)r-0-------0--x-0-|---x-x-x-x-x-2-0-|-2-0-------------|
|-0-1---------------0tr1--0--x-0-|---x-x-x-x-x-2-0-|-2-0-x-----0-x---|
|------------------------(0)-----|---x-x-x-x---1---|-2-0-x-0-x-0-x---|
|--------------------------------|-2---------------|-0-----0-x-------|
|--------------------------------|-----------------|---------------0-|


      |-3-| |--3--| |-3-|
  E E E E E Q S T T E E E   a E E E E +E  E E E
|---0-------0-0-----------|-------3-2-(2)-2-2-0-||
|---0-----3-----3---------|-------3-2-(2)-2-2-0-||
|---0-2s4---------4s2p0---|-0h1---3-2-(2)-2-2-0-||
|-----------------------2-|---2---2-1-(1)-------||
|-------------------------|---------------------||
|-0-----------------------|-----0---------------||


 Guitar Solo
    |--3--|  |--3--|  |--3--|  |--3--|   |---3---|  |--3--|  |--3--|  |--3--|
    E  E  E  E  E  E  E  E  E  E  E  E   E   E   E  E  E  E  E  E  E  E  E  E
|------0--0--0--0--0--0--0--0--0--0--0-|-----0---0--0--0--0--0--0--0--0--0--0-|
|-/12-12-12-12-12-12-12-12-12-12-12-12-|----15--15-15-15-15-15-15-15-15-15-15-|
|-/13-13-13-13-13-13-13-13-13-13-13-13-|---(16)-------------------------------|
|--------------------------------------|-0------------------------------------|
|--------------------------------------|-0------------------------------------|
|--------------------------------------|--------------------------------------|


  |--3---|  |--3--|  |--3--|  |--3--|    |---3----|  |--3--|  |--3--|  |--3--|
  E   E  E  E  E  E  E  E  E  E  E  E    S  S  E  E  E  E  E  E  E  E  E  E  E
|--------0--0--0--0--0--0--0--0--0--0-|--------0--0--0--0--0--0--0--0-----0--0-|
|---/12-12-12-12-12-12-12-12-12-12-12-|-12s15-15-15-15-15-15-15-15-15s16-16-16-|
|---/13-13-13-13-13-13-13-13-13-13-13-|-13s16-16-16-16-16-16-16-16-16s17-17-17-|
|-0-----------------------------------|----------------------------------------|
|-0-----------------------------------|----------------------------------------|
|-0-----------------------------------|----------------------------------------|


   |---3----|  |--3--|  |--3--|  |--3--|    |--3--|  |--3--|  |--3--|   |-3--|
   S  S  E  E  E  E  E  E  E  E  E  E  E    E  E  E  E  E  E  E  E  E  +E  E E
|--0-----0--0--0--0--0--0--0--0--0--0--0-|-----0--0--0--0--0--0--0--0--(0)-0-0-|
|-16s17-17-17-17-17-17-17-17-17-17-17-17-|----20-20-20-20-20-20-20-20-(20)-0-0-|
|-17s18-18-18-18-18-18-18-18-18-18-18-18-|-18-21-21-21-21-21-21-21-21-(21)-0-0-|
|----------------------------------------|--x--------------------------------0-|
|----------------------------------------|--x----------------------------------|
|----------------------------------------|--x----------------------------------|


   |---3----|  |------3------|  |--------3---------|
   E     E  E  S      S   E  E  Q      Q   a      +Q
|-------12-12------------12-12-15b17==15r-15b17==(15)r-|
|-------12-12-15b16==15r-12-12-------------------------|
|-14b16------------------------------------------------|
|------------------------------------------------------|
|------------------------------------------------------|
|------------------------------------------------------|


                    |----3----|                         |-------3-------|
   a      +E    E  +E.  S  S  S  a      +S   +S   S  S  E  S      +S    E
|-15b17==(15)r-15-(15)-12-------------------------------------------------|
|-------------------------15-12----------------------------------------12-|
|-------------------------------14b16==(14)r(14)p12----12-14b15==(14)r----|
|---------------------------------------------------14--------------------|
|-------------------------------------------------------------------------|
|-------------------------------------------------------------------------|


                                                  ~~
   |-------3-------|  |---3----|  |-----3------|
   E  S      +S    E  S  S  E  E  E      +E    E  E  E
|-12--------------12-14p12----12-15b17==(15)r-15-12-12-|
|----15b16==(15)r-12-------15-12-----------------------|
|------------------------------------------------------|
|------------------------------------------------------|
|------------------------------------------------------|
|------------------------------------------------------|


           |---3---|  |---3---|  |-3--|       |---3----|
   a      +E    E  E  E  E  a E +E  E E a    +E  +S  S E
|-----------------12-------------------------------------|
|--------------12----15-12----------0--------------------|
|-14b16==(14)r-------------14-2-(2)p0---2b4==(2)r(2)p0---|
|-------------------------------------2----------------2-|
|--------------------------------------------------------|
|--------------------------------------------------------|


  |--3--| |---3---|
  S  E. E Q S    +S   E a    +E   E E
|-------3-0-----------0---------------|
|---------0-3b4==(3)r-0---------------|
|-0h=1------------------2b4==(2)r-0-1-|
|-2-(2)-------------------------------|
|-------------------------------------|
|-------------------------------------|


        TP TP
  E E E E +H       W          e E Q  H
|---0-2-3-(3)----|-3--------|-------------*|
|---0-2-3-(3)----|-3--------|-------------*|
|---0-x-x-(x)----|-x--------|-0-----------*|
|-2---1-2-(2)----|-2--------|-0-----------*|
|----------------|----------|-0-----------*|
|----------------|----------|-------------*|



Duration Legend
---------------
W - whole; H - half; Q - quarter; E - 8th; S - 16th; T - 32nd; X - 64th; a - acciaccatura
+ - note tied to previous; . - note dotted; .. - note double dotted
Uncapitalized letters represent notes that are staccato (1/2 duration)
Irregular groupings are notated above the duration line
Duration letters will always appear directly above the note/fret number it represents the
duration for.  Duration letters with no fret number below them represent rests.  Multi-
bar rests are notated in the form Wxn, where n is the number of bars to rest for.  Low
melody durations appear below the staff

Tablature Legend
----------------
 h   - hammer-on
 p   - pull-off
 b   - bend
 pb  - pre-bend
 r   - bend release (if no number after the r, then release immediately)
 /\  - slide into or out of (from/to "nowhere")
 s   - legato slide
 S   - shift slide
<n> - natural harmonic
[n]  - artificial harmonic
n(n) - tapped harmonic
 ~   - vibrato
 tr  - trill
 T   - tap
 TP  - trem. picking
 PM  - palm muting
\n/  - tremolo bar dip; n = amount to dip
 \n  - tremolo bar down
 n/  - tremolo bar up
/n\  - tremolo bar inverted dip
 =   - hold bend; also acts as connecting device for hammers/pulls
 <> - volume swell (louder/softer)
 x   - on rhythm slash represents muted slash
 o   - on rhythm slash represents single note slash

Misc Legend
-----------
 |  - bar
||  - double bar
||o - repeat start
o|| - repeat end
*|  - double bar (ending)
 :  - bar (freetime)
 $  - Segno
 &  - Coda
Tempo markers - <E/E./Q/Q./H/H.> = BPM(8/16=s8/s16), where s8 = swing 8ths, s16 = swing 16ths

comments
We did not receive enough feedback on this tab! Please rate:
print report bad tab
1 2 3 4 5
I want to post or [tab]
guest
You may want to rate the tab now too:
select rating
Please do not post tabs as comments. Select "correction" instead!