Oops, an error
Loading. Please wait.
ver1
ver1

Whole song

Interactive

More versions @911Tabs.com
5,008 views 1 this week
1 commentread comment
1 2 3 4 5
excellent!
x 1
Autoscroll
+/-
esc
set tempo
stop
Contributor
Tuning
D# G# C# F# A# D#
Hey! There's an official Ultimate Guitar app which is ideal
for learning songs when you're away from computer. Get the app
WARNING: You are trying to view
                                    content from Ultimate-Guitar.com
                                    in an unauthorized application,
                                    which is prohibited.

                                    Please use an official Ultimate
                                    Guitar Tabs application for iPhone,
                                    iPad or Android to access legitimate
                                    chords, guitar, bass, and drum tabs
                                    from Ultimate-Guitar.com database.

                                    Type "ultimate guitar tabs" in Apple
                                    App Store's or Android Market's
                                    search to find the application.
#----------------------------------PLEASE NOTE---------------------------------#
#This file is the author's own work and represents their interpretation of the #
#song. You may only use this file for private study, scholarship, or research. #
#------------------------------------------------------------------------------#

LENNY (Live)
As recorded by Stevie Ray Vaughan
(From the 2002 Album LIVE AT CARNEGIE HALL)

Transcribed by TLSspider 
        

Words and Music by Stevie Ray Vaughan
Arranged by Stevie Ray Vaughan

Gtr I (Eb Ab Db Gb Bb Eb) - 'Stevie Ray Vaughan'
Gtr II (Eb Ab Db Gb Bb Eb) - 'guitar effects'

 Intro
  Slowly Q=67
  Emaj13 E6        E
 4/4              2/4          4/4
  Gtrs I, II
   ~~      ~~~        ~~~~~~~~~~~~~~~
                                                       |-3--| |3-|
   Q  Q    Q  Q    E  E   Q      +q   a a a E E S  S E S  S S S  E
|-^9-------------|---12-(12)--|-(12)--x----------------------------||
|-^9-----^12-----|---12-(12)--|-(12)----x--------------9-----------||
|-^8-----^13-----|------------|-----------x------------9h11p9------||
|-^x-----^11-----|------------|----------------------9--------9h11-||
|-^7-----^-x-----|------------|---------------7-9s11---------------||
|--------^12-----|-0----------|-----------7s9----------------------||


 Verse
     Emaj13
                       ~~
  Q   Q  +E  S S a a a E. T T
|----^9--(9)-7----------------|
|----^9--(9)---------7h9--7---|
|----^8--(8)-------x--------9-|
|----^x--(x)-----x------------|
|----^7--(7)------------------|
|-0------------0--------------|


  A6                                              Emaj13
                                                   ~~~~~~~          ~~
  E. S E. S a S S a  S S  a  S   S a  S a  S   Q   Q  +E  S S a a a E. T T
|--------------------------------------------|----^9--(9)-7----------------|
|------5--0---------------9-(9)--------------|----^9--(9)---------7h9--7---|
|------6--0--------------11p=9---------------|----^8--(8)-------x--------9-|
|------4--0------------9--------11-----------|----^x--(x)-----x------------|
|---------------7-9s11-------------9h11-9h11-|----^7--(7)------------------|
|-5--5------7s9------------------------------|-0------------0--------------|


  A6                                          E13
        ~~~                                       ~~~~~~~          ~~
  E. S  E. S a S S a  S S  a S  S a  S a  S   Q   Q  +E  S S a a a E. T T
|-------------------------------------------|----^9--(9)-7-----------------|
|-------5--0--------------------------------|----^9--(9)---------7h9--7----|
|-------6--0--------------11p9--------------|----^8--(8)-------x--------9--|
|-------4---------------9------11-----------|----^x--(x)-----x-------------|
|----------------7h9h11-----------9h11-9h11-|----^7--(7)-------------------|
|-5--5-(5)---7s9----------------------------|-0------------0---------------|


  A6                                E13
         ~~~~                           ~~~~~~~          ~~
  E. S   E. S a S E S a  S S S  S   Q   Q  +E  S S a a a E. T T
|---------------------------------|----^9--(9)-7----------------|
|------^-5--0---------------------|----^9--(9)---------7s9--7---|
|------^-6--0--------------9------|----^8--(8)-------x--------9-|
|------^-4-------------------9----|----^x--(x)-----x------------|
|-----------------7-7-9s11-----11-|----^7--(7)------------------|
|-5--5-^(5)---7s9-----------------|-0------------0--------------|


  A6                     Bb6       B6
        ~~~~~~~                            ~~       ~
  E. S  E. +S  S S S S a S S S S   a E S S E. S S S E  S  S S S
|--------------------------------|------------------------------|
|-------5--(5)---5-------------6-|--------------7---------7-----|
|-------6--(6)---------------7---|---------8--------8-(8)---8---|
|-------4--(4)-----4-------------|-----6----------------------6-|
|--------------------------x-----|------------------------------|
|-5--5-(5)-----5-----5-5s6-------|-6s7---7----7---7-------------|


    D6                                        G6
             ~~~    ~~                           ~~~      ~~
  a  E S  S  E.  S  S  S  E   E  E   a a a E. S  E. S S S S. +S  S S S.
|----------------------------------|------------------------------------|
|-----------10-----10--------------|-------------3----3----------3------|
|-----------11-----------11-(11)-9-|-x-----------4--------4--(4)---4----|
|-6s=9-9---------------------------|---x---------2-------------------2--|
|-x--------------------------------|-----x------------------------------|
|-7s10---10-----10----10-----------|-------3--3-(3)-3---3---------------|


                                  Verse
    Bb6                            E
                 ~~                     ~~~~
                        |--3--|
  a E. T T S E S E. S a E E S S    Q    H.
|-------------------------------||----<12>------|
|--------6-------5--0-----------||----<12>------|
|----------7-----6--0-----------||--------------|
|------------5---4--0-----------||--------------|
|----------------x--------7-7h9-||--------------|
|-3s6--6-------6-5----7s9-------||-0------------|


  A          D/A A
                    ~~~~~~~
                                    |---3---|
  a a a E. S S S S  S  +Q   a a a a E E S a S
|----------------------------------------------|
|-------------------5--(5)--x------------------|
|-x----------7---6-(6)-(6)----x----------------|
|---x--------4------------------x--------------|
|-----x-------------------------------7-7-7h9--|
|-------5--5---5------------------7s9----------|


  Em7
                                       ~~~~~~
  E.  S   S    S    S    S   E   E     Q
|------------------------------<12>-(<12>)--|
|---------------------------12--------------|
|-----------------<12>----------------------|
|-------<12>--------------------------------|
|-------------------------------------------|
|-0--12------<12>------<12>-----------------|


        A5
                    ~~~~~~~
                                   |---3---|
  a a a E. S S S S  S  +E  a a E a E E S a S
|--------------------------------------------|
|----------------5-(5)-(5)-x-----------------|
|-x----------6---6-(6)-(6)---x---------------|
|---x---------------4--(4)-----x-------------|
|-----x------------------------------7-7-7h9-|
|-------5--5---5-----------------7s9---------|


  E
                ~~~               ~~
                         |--3--|
  Q  +E   S  S  E.  T T  S  S  S  E
|--------------12-------------------|
|--------12-14-----12-x-------------|
|-----------------------14p12-------|
|-----------------------------14-14-|
|-----------------------------------|
|-0--(0)----------------------------|


  A7
                                             ~~
   S E. S  S  S  S  S  S  S  S  S       S S  S
|------------12-12-12-12-12-12-----------------|
|----------------------------------------------|
|------------12-14s15s14-12-14-12b12.5---------|
|-11------14---------------------------14---14-|
|----------------------------------------------|
|----------------------------------------------|


  E7
 7/8
                                          ~~
   a  S  S  S  a  S  T  T  S  S  S  S  S  E  a  S  S
|----------------------------------------------------|
|----------14-12-------------------------------------|
|-12s13p12-14-12h13-------------------------12s13----|
|-12-12-------------14p12----------------14-11s12-14-|
|-------------------------14-13-12-------------------|
|----------------------------------15-12-------------|


  A6
 4/4
                     ~~~
                              |---3---|
  E E S S  S  S  S   E. a a a E E S a S
|----------------------------------------|
|----------5-----5--(5)------------------|
|----------6-----6--(6)-x----------------|
|----------4-----4--(4)---x--------------|
|-0-----------------------------7-7-7h9--|
|-----5-5-(5)-5-(5)-(5)-----7s9----------|


  Em7                                             A6
  ~                  ~~~~~~~~~~~~~~~~~~~
  Q   S  E  S  S  S  E  +E    E     +Q   Q  a a a E  S  S a S S a  S a  S
|-------------------12-(12)-(12)-|-(12)-----------------------------------|
|-------------------12-(12)-(12)-|-(12)--x-----------5--5-----------------|
|-------------12-----------------|----------x--------6--6-----------------|
|-------12-----------------------|------------x------4--4-----------------|
|--------------------------------|--------------x-------------7-9h11-9h11-|
|-0--12----12----12--------------|-------5--------5-(5)---7s9-------------|


  E
                       ~~
                           |--------6--------|
  Q  +S  a a  S  S  S  Q   S  S  a  S  S  S  S
|---------------------12--------------------------|
|------------12-14-12-----14p12-------------------|
|----------x--------------------14s15s14p12-------|
|--------x----------------------------------14----|
|-------------------------------------------------|
|-0--(0)------------------------------------------|


   |--------6--------|  |--------6--------|  |--3--|        |--3--|
   S  S  a  S  S  S  S  S  a  S  S  S  S  S  S  S  E  a  e  E  S  e
|-12-12-12-12-12-12-------------------------------15----------------|
|----------------------15-------------------------------------------|
|-12-14-14s15s14-12-------14s15-14-12----12-14s16----16s14-14-12----|
|-------------------14----------------14-------------------------14-|
|-------------------------------------------------------------------|
|-------------------------------------------------------------------|


                 E7
   ~~
   Q   S  S S  S  S S  S S  a  S  S  S  S
|-----------------------------------------|
|-----------------------------------------|
|-14----------12s13---14---12s13-13-14-12-|
|-----11-14---11s12---12---11s12-12-14-12-|
|------0----------------------------------|
|-----------0-------0----0----------------|


  A                     A7            A
   S  S  S S  S  E  S S  S  S S  S  S  S S
|------------------------------------------|
|------------------------------------------|
|-------14---14-14-14---12-12---12-12-14---|
|-------11---11-11-11---11-11---11-11-11---|
|-12-12------------------------------------|
|----------0----------0-------0----------0-|


  E7
   S  S  S  a  S  T  T  S  S  S  S  S  S  S     S  S  S  S
|-------------------------------------------------12----------|
|----------------------------------------------12----12-15b17-|
|-12s13-14-12h13-------------------------14b16----------------|
|-11s12----------14p12----------12-14-------------------------|
|----------------------14-12----------------------------------|
|----------------------------15-------12----------------------|


   |--------6--------|  |--3--|        |-3-|  |------3-------|  |-3-|     |--3--|
   S  S  S  S     S  S  S  S  S  a  a  E.  S  S  S  a  S  S  S  E.  S  a  S  a  S
|-12----------------12-------14-12h13p12-----12-----------------------------------||
|----15-12-------12----15-12--------------15----15-------------14--12-------------||
|----------14b16-----------------------------------15s14-12----14--12-------------||
|-----------------------------------------------------------14--------14p12-------||
|---------------------------------------------------------------------------12h14-||
|---------------------------------------------------------------------------------||


 Verse
  Emaj13
      ~~~~~~~          ~~
  Q   Q  +E  S S a a a E. T T
|----^9--(9)-7-----------------|
|----^9--(9)---------7h9--7-9--|
|----^8--(8)-------x-----------|
|----^x--(x)-----x-------------|
|----^7--(7)-------------------|
|-0------------0---------------|


  A6
        ~~~
              |-----6------|      |3-| |-3--|
  E. S  E. S  S S  S S  S  S a  a E  S T  T T +T   T
|------------12-9------------------------------------|
|-------5---------12-9-------------------------------|
|-------6--------------12-11-9h11p9----9-------------|
|-------4--x------------------------11-9h11p9-(9)----|
|----------x--------------------------------------11-|
|-5--5-(5)-x-----------------------------------------|


  E
  a  a S S a  S S a  S S S S S S S S S S  S S
|---------------------------------------------|
|---------------------------------------------|
|---------------9------9-7-7-5-5---4---2----5-|
|-9--9-------------------x---x----------------|
|-9h11p9s7-9s11---9s11---9---7---5---4--------|
|----------------------------------------/7---|


  A6
        ~~~
  E. S  Q   a a a a S a S S a  S S S S   S
|-------------------------------------------|
|-------5---x-------------------------------|
|-------6-----x------------------9-9-7------|
|-------4-------x----------------9-9-7------|
|-----------------x-------7-9s11------------|
|-5--5-(5)----------0-7s9--------------/12--|


  Emaj13
      ~~~~~~~          ~~
  Q   Q  +E  S S a a a E. T T
|----^9--(9)-7----------------|
|----^9--(9)---------7h9--7-9-|
|----^8--(8)-------x----------|
|----^x--(x)-----x------------|
|----^7--(7)------------------|
|-0------------0--------------|


  A6                 Bb6       B6
        ~~~                            ~~       ~~~~~~
                     |--3--|
  E. S  E. S S S S S E E S S   a E S S E. S S S E +S  S E
|----------------------------|-----------------------------|
|-------5--5---5-----------6-|---------7----7---------7----|
|-------6--6-------------7---|-----8------------8-(8)------|
|-------4--4-----4-----5-----|--------------------------6--|
|----------------------------|-----------------------------|
|-5--5-(5)---5-----5s6-------|-6s7---7----7---7------------|


    D6
             ~~~
  a  E S  S  E. S  S  S   a   a S  S  a  S  S  a  a  S  S
|---------------------------------------------------------|
|-----------10----10-10-(10)(10)--------------12h13p12----|
|-----------11-----9-11---9h=11p9----------12-12----------|
|------9--------------------------12-------12-12h14p12----|
|------------------------------------12s14-------------14-|
|-7s10---10-----0-----------------------------------------|


  G6
        ~~~
  E. S  E.  S S S S S S S S S
|-----------------------------|
|-------3--!3-----3-3-------3-|
|-------4--!4---4---------4---|
|-------2--!2---------2-------|
|-----------------------x-----|
|-3--3-(3)----3---------------|


    Bb6        A6
                      \1.5/      \1.5
          ~~
  a E S S E. S S +S   S     +S   S    T T S S
|---------------------------------------------|
|-3s6-----6----5-(5)-(5)----(5)-(5)---x-------|
|-4s7----------6-(6)-(6)----(6)-(6)---x-------|
|-2s5-5--------4-(4)-(4)----(4)-(4)---x-----7-|
|-x------------x-(x)-(x)----(x)-(x)-----------|
|-3s6---6----6-5-(5)-(5)----(5)-(5)-----7s9---|


  E
       ~~~~              ~~~~~~~~~~~
  Q    H.        S. a S. E. Q.    S T T a S S
|----<12>------|---------7--9----12-x-x-------||
|----<12>------|--------------------x-x-------||
|--------------|------7-----------------------||
|--------------|----x-----------------------7-||
|--------------|------------------------------||
|-0------------|-0----------------------7s9---||


 Verse
  Emaj13                        A6
      ~~~~~~~          ~~             ~~~~~~~~               ~~~~~~~
  Q   Q  +E  S S a a a E. T T   E. S  Q    E  a a S S   S T  T  +E
|----^9--(9)-7----------------|-------------------------------------|
|----^9--(9)---------7h9--7-9-|-------5---(5)-----7h9-/12-9-12-(12)-|
|----^8--(8)-------x----------|-------6---(6)---x-------------------|
|----^x--(x)-----x------------|-------4---(4)-x---------------------|
|----^7--(7)------------------|-------------------------------------|
|-0------------0--------------|-5--5-(5)--(5)-----------------------|


              ~~~~~~~        ~~~~~~~        ~~~~~~~
       |--3---|       |--3---|       |--3---|
    E  S  S   S  +E   S  S   S  +E   S  S   S  +E.  T  T
|--------------------------------------------------------|
|-(12)-9h12-/14-(14)-12h14-/17-(17)-14-17-/19-(19)-17h19-|
|--------------------------------------------------------|
|--------------------------------------------------------|
|--------------------------------------------------------|
|--------------------------------------------------------|


 2/4
                           |---3----|
   a  E  a  E  a  a  S  S  S  S  a  S
|-16h17-16h17-16h17p16----16----------|
|----------------------19----19-17h19-|
|-------------------------------------|
|-------------------------------------|
|-------------------------------------|
|-------------------------------------|


 3/4
            |3-|           |3-|          |3-|        |3|       |3|       |-3-|
   a  a  a  E  S  a  a  a  E  S  a  a  a E  S a  a a E S a a a E S a a a S S S
|------------------------------------------------------------------------------|
|-17h19p17s14-17-14h17p14s12-14-12h14p12s9-12-9h12p9s7-9-7h9p7s5-7-5h7p5s2-5-2-|
|------------------------------------------------------------------------------|
|------------------------------------------------------------------------------|
|------------------------------------------------------------------------------|
|------------------------------------------------------------------------------|


 3/4
      |-----3-----|                 |---3---|
  a a E a a E a a E a a S T T S S a E a E a E   a S E. E S S S S S S
|---------------------------------------------|--------0---0---------|
|-0h1s2-0h1s2-0h1s2-0h1-2-0-------------------|------------0---------|
|---------------------------2-0---------------|----------------------|
|---------------------------------0h2-0h2-0h2-|-0h2------------------|
|---------------------------------------------|----------------------|
|---------------------------------------------|-----0----0---3-3-4-4-|


  A
 4/4
  E. S a S S S S a S S S a T T T T T T S S
|----------5---3-----0---------------------|
|------------------------------------------|
|------4s6---4---2s4---0-2s3s2-0-----------|
|--------------------------------2p0-----2-|
|----0-------------------------------1s2---|
|-5----------------------------------------|


  E
        |--3--|   |3| |3|
  E. S  e e S S a E S E S T T S a S S
|------12-9-7-3-3s4-3-2-0-----------0--|
|-------x-x-x-x-x---x-x---2p0----------|
|-------x-9-7-3-3s4-3-2---2p0---0h1----|
|------11---------------------2--------|
|--------------------------------------|
|-0--0---------------------------------|


  A
                                     |--3--|
  E. S E E     T T S a T T T T a S S S a S S
|------5-3b3.5-0-----------------------------|
|--------3b3.5---3p0-------------------------|
|------6-------------2s3s2p0-----------------|
|----------------------------2---------------|
|-0--0-----------------------------5-5-----7-|
|------------------------------5s7-----5s7---|


  E
  e  E  +S  t T S S e     a E E S S
|------------------------------------|
|------------------------------------|
|------------------------------------|
|---------------2---5b5.5-0h2p0h2p0--|
|-----------2h4---4------------------|
|-0-(0)-(0)--------------------------|


 2/4
   Q       Q     a a a a T T S S S S S     a    E
|--------------|-x--------------------------------||
|--------------|---x------------------------------||
|--------------|-----x----------------------------||
|-(0tr2)--(0)--|-------x-----2-2---5-5b5.5-0tr2-0-||
|--------------|---------2h4-----4----------------||
|--------------|----------------------------------||


 Verse
  Emaj13
 4/4
         ~~                              ~~~
            |-3-|                                                 |-3--|
  Q  q   Q  T T T S a    E   a a a E. S  Q   a a a a S a S S a  S T  T T  S a  S  a  S
|-------^9--7h9p7----------|------------------------------------------------------------|
|-------^9--------9-7tr9-7-|-------------5---x------------------------------------------|
|-------^8-----------------|-x-----------6-----x------------------9h11p9----9-(9)-9-(9)-|
|-------^x-----------------|---x---------4-------x-----------------------11-9-(9)-9-(9)-|
|-------^7-----------------|-----x-----------------x-------7-9s11-----------9h11--9h11--|
|-0--0---------------------|-------5--5-(5)----------0-7s9------------------------------|


  Emaj13
      ~~~~~~~          ~~
  Q   Q  +E  S S a a a E. T T
|----^9--(9)-7-------------------|
|----^9--(9)---------7h9--7-9----|
|----^8--(8)-------x-------------|
|----^x--(x)-----x---------------|
|----^7--(7)---------------------|
|-0------------0-----------------|


  A6
  E. S  E  S S a S S a  S S  a  S   S a  S  a  S
|-------------------------------------------------|
|-------5----5---------------9-(9)----------------|
|-------6----6------------9-11p=9-----9-(9)-9-(9)-|
|-------4----4------------9--------11-9-(9)-9-(9)-|
|------------------7-9s11-------------9h11--9h11--|
|-5--5-(5)-5---7s9--------------------------------|


  Emaj13
      ~~~~~~~          ~~
  Q   Q  +E  S S a a a E. T T
|----^9--(9)-7----------------|
|----^9--(9)---------7h9--7-9-|
|----^8--(8)-------x----------|
|----^x--(x)-----x------------|
|----^7--(7)------------------|
|-0------------0--------------|


  A6                                   Emaj13
        ~~~                                ~~~~~~~          ~~
  E. S  E. S a a a a E E E a  S a  S   Q   Q  +E  S S a a a E. T T
|------------------------------------|----^9--(9)-7----------------|
|-------5--0-x-----------------------|----^9--(9)---------7h9--7-9-|
|-------6------x---------------------|----^8--(8)-------x----------|
|-------4--------x-------------------|----^x--(x)-----x------------|
|----------------------7-x-9h11-9h11-|----^7--(7)------------------|
|-5--5-(5)---------7s9---------------|-0------------0--------------|


  A6
        ~~~
                             |-3--|
  E. S  Q   a a a S S a  S S T  T T  S a  S  a  S
|--------------------------------------------------:
|-------5--------------------9---------------------:
|-------6---x----------------9h11p9----------------:
|-------4-----x------------9--------11-9-(9)-9-(9)-:
|-------------------7-9s11-------------9h11--9h11--:
|-5--5-(5)------7s9--------------------------------:


 3/4
  a  T T S S T T S E.  a  S  S  a  S  S
|---------------------12s14-12-12s14-12-:
|---------------------12s14-12-12s14-12-:
|-9--9----------------------------------:
|-9--9----------------------------------:
|-9h11p9p7-9-----7----------------------:
|------------7s9---0--------------------:


                                                                  A
 2/4                                   4/4
                                                                        ~~~~
                     |------5------|    |-3-|
   a  S  S  S  S  a  S  S  S  S a  S    T T T S S S a  E  S  S  a  Q    Q
|-17s19-19-17-17-12s14-14-12-12-7-(7)-:-7-------7----------------------------|
|-17s19-19-17-17-12s14-14-12-12-7h=9--:-7h9p7---7--------10-10-10-10--(10)---|
|-------------------------------------:-------9---9-------9-11--9--9---(9)---|
|-------------------------------------:-------------9s11--------9h11--(11)---|
|-------------------------------------:--------------------------------------|
|-------------------------------------:--------------------------------------|


  G                                D          Em
  \1 / \1 / \1 / \0.5 \0.5 /
                              ~           ~~~         ~~~
  |-----6------|
  S  S S  S S  S E    E    Q  Q    S S E +Q    S S E  E  S S
|--------------------------------:---------------------------:
|-8--8-8--8-8--8-8----8----8--8--:---------------------------:
|-7--7-7--7-7--7-7----7----7--7--:-----7-(7)-----------------:
|-9--9-9--9-9--9-9----9----9--9--:-----7-(7)-------5-(5)-----:
|--------------------------------:-7h9--------/7-7-----------:
|--------------------------------:-----------------------7h9-:


  E
  ~
                       |-3--|
  Q  E a S S a  S T  T T  T T  S  S  T  T T  T  S
|----------------------------------------------12-:
|--------------------------------12---------------:
|----------------------9h11p9-------12s11s9-------:
|-----------------9-11--------11------------11----:
|-7--------7-9s11---------------------------------:
|----0-7s9----------------------------------------:


 5/8
                        |-3--|         |-3--|
   T T  T  T T  T a  S  T  T T  S S  S T  T T  T T
|---------------------------------------------------:
|-12-9------------9-(9)-9-(9)-----9-----------------:
|------12-11p9----9h11--9-11p9----9----9------------:
|--------------11--------------11---11-9-11p9-------:
|---------------------------------------------11----:
|------------------------------------------------0--:


 2/4
        |-3-|   |-3-|
   S S  T T T S S S S E
|-----------------------:
|-----------------------:
|-----------------------:
|-----------------------:
|-11-9h11p9s7-9-----7---:
|---------------7h9---0-:


                                               Cmaj7Cmaj1D7
 4/4
                                        ~~~~~~~~~~~~~~~~~~~~~~~~~~
    E    E    E    S    S    +E    E   +Q        Q    Q    Q    Q
|---------------------<12>-(<12>)-<5>-(<5>)--:-^-7--^-7--^-7-------:
|----------------<12>------------------------:-^-8--^-7--^-7--^-7--:
|-----------<12>-----------------------------:-^-9--^-9--^-7--^-7--:
|------<12>----------------------------------:-^10--^10--^10--^10--:
|--------------------------------------------:---------------------:
|-<12>---------------------------------------:---------------------:


  Emadd9                 Em
                              ~~~~~~~~~~
  S S S S Q   Q   S E.    Q   Q   H
|------------!0--!0h2--:-^0--(0)--0----:
|---------0--!0--!0----:-^0--(0)--0----:
|-------0----!0--!0----:-^0--(0)--0----:
|-----4------!4--!2----:-^2--(2)--2----:
|---2--------!2--!2----:-^2--(2)--2----:
|-0----------!0--!0----:-^0--(0)--0----:


 5/4                    4/4
 ~~~~~~~~~~~~~~~~~         ~~~~~~~~~~~~~~~~~~~
  Q   Q   Q    Q    Q      W             +H      H
|------------<12>--^0--:-<24>--------|-(<24>)---------*|
|------------------^0--:-------------|----------------*|
|------------------^0--:-------------|----------------*|
|----------------------:-------------|----------------*|
|----------------------:-------------|----------------*|
|-0--<7>--0------------:-------------|----------------*|



Duration Legend
---------------
W - whole; H - half; Q - quarter; E - 8th; S - 16th; T - 32nd; X - 64th; a - acciaccatura
+ - note tied to previous; . - note dotted; .. - note double dotted
Uncapitalized letters represent notes that are staccato (1/2 duration)
Irregular groupings are notated above the duration line
Duration letters will always appear directly above the note/fret number it represents the
duration for.  Duration letters with no fret number below them represent rests.  Multi-
bar rests are notated in the form Wxn, where n is the number of bars to rest for.  Low
melody durations appear below the staff

Tablature Legend
----------------
 h   - hammer-on
 p   - pull-off
 b   - bend
 pb  - pre-bend
 r   - bend release (if no number after the r, then release immediately)
 /\  - slide into or out of (from/to "nowhere")
 s   - legato slide
 S   - shift slide
 - natural harmonic
[n]  - artificial harmonic
n(n) - tapped harmonic
 ~   - vibrato
 tr  - trill
 T   - tap
 TP  - trem. picking
 PM  - palm muting
\n/  - tremolo bar dip; n = amount to dip
 \n  - tremolo bar down
 n/  - tremolo bar up
/n\  - tremolo bar inverted dip
 =   - hold bend; also acts as connecting device for hammers/pulls
 <> - volume swell (louder/softer)
 x   - on rhythm slash represents muted slash
 o   - on rhythm slash represents single note slash

Misc Legend
-----------
 |  - bar
||  - double bar
||o - repeat start
o|| - repeat end
*|  - double bar (ending)
 :  - bar (freetime)
 $  - Segno
 &  - Coda
Tempo markers -  = BPM(8/16=s8/s16), where s8 = swing 8ths, s16 = swing 16ths

comments
We did not receive enough feedback on this tab! Please rate:
print report bad tab
1 2 3 4 5
1 comment total.
0 reply
michaelscofield wrote on November 16 2009, 11:30 pm

Incredible! SRV's best performance of Lenny by far, excellent tab mate, some of those amazing licks were kinda baffling me.

I want to post or [tab]
guest
You may want to rate the tab now too:
select rating
Please do not post tabs as comments. Select "correction" instead!