Oops, an error
Loading. Please wait.

Letter To My Girlfriend Live Tab

1,873 views 1 this week
no commentswrite comment
1 2 3 4 5
please rate
add to favorites launch autoscroll
font size
0
reset
Autoscroll
+/-
esc
set tempo
stop
Contributor
WARNING: You are trying to view
                                    content from Ultimate-Guitar.com
                                    in an unauthorized application,
                                    which is prohibited.

                                    Please use an official Ultimate
                                    Guitar Tabs application for iPhone,
                                    iPad or Android to access legitimate
                                    chords, guitar, bass, and drum tabs
                                    from Ultimate-Guitar.com database.

                                    Type "ultimate guitar tabs" in Apple
                                    App Store's or Android Market's
                                    search to find the application.
#----------------------------------PLEASE NOTE---------------------------------#
#This file is the author's own work and represents their interpretation of the #
#song. You may only use this file for private study, scholarship, or research. #
#------------------------------------------------------------------------------#

LETTER TO MY GIRLFRIEND (Live)
As recorded by Stevie Ray Vaughan
(From the 2002 Album LIVE AT CARNEGIE HALL)

Transcribed by TLSspider 
        

Words and Music by Eddie Jones
Arranged by Stevie Ray Vaughan

Gtr I (E A D G B E) - 'Stevie Ray Vaughan'
Gtr II (E A D G B E) - 'Rhythm'

 Intro
  Moderate Shuffle Q=167(8=s8)
                                   A
 4/4
  Gtr I
  H    E E E E   E E E E E E E E    E E E  Q   E E E    E  E E E E E E E
|------------5-|-8-9-5---5-------|-/5-5-5\---------5-|--8--9-5---5-------|
|--------5-7---|-------5---5-7-5-|-/5-5-5\-----5-7---|---------5---5-7-5-|
|--------------|-----------------|-------------------|-------------------|
|--------------|-----------------|-------------------|-------------------|
|--------------|-----------------|-------------------|-------------------|
|--------------|-----------------|-------------------|-------------------|
|
| Gtr II
| W              H       E E E E    Q   Q    E E E E   +E  E E E E E E E
|--------------|-5---------5---5-|--5----------5-5-5-|-(5)-x-5-x---5-5-x-|
|--------------|-5---------5---5-|--5----------5-5-5-|-(5)-x-5-x---5-5-x-|
|--------------|-6---------6-----|--6--------------6-|-(6)-x-6---------x-|
|--------------|-----------------|-------------------|-------------------|
|--------------|-----------------|-------------------|-------------------|
|--------------|-----------------|-------------------|-------------------|


                      D7
   E E E  Q   E E E   E E E E E E E E   E E     q       E E E E
|-/5-5-5\---------5-|-7-9-5---5-----5-|-8-8-----8b8.5---------5-|
|-/5-5-5\-----5-7---|-------5---5-7-5-|-7-7b7.5-7b7.5-----5-7---|
|-------------------|-----------------|-------------------------|
|-------------------|-----------------|-------------------------|
|-------------------|-----------------|-------------------------|
|-------------------|-----------------|-------------------------|
|
|  Q   Q    E E E E   E E E E E E E E   E E     E     E E E E E
|--5----------5-5-5-|-5---5-----5-5-x-|-5-------5---------5-5-5-|
|--5----------5-5-5-|-7---7-----7-7-x-|-7-------7---------7-7-7-|
|--6--------------6-|-5-------------x-|-5---------------------5-|
|-------------------|-----------------|-------------------------|
|-------------------|-----------------|-------------------------|
|-------------------|-----------------|-------------------------|


  A                                         E7
  E E E E E E E E     E  E  E  E  E E E E   E E E E E E E E
|-8-9-5---5-----5-|-/16-17-17-17\-------5-|-8-9-5---8-9-5---|
|-------5---5-7-5-|-/16-17-17-17\---5-7---|-------5-------5-|
|-----------------|-----------------------|-----------------|
|-----------------|-----------------------|-----------------|
|-----------------|-----------------------|-----------------|
|-----------------|-----------------------|-----------------|
|
| E E E E E E E E     E  E  E  E  E E E E   E E E E E E Q
|-5-x-5-5---5-5-5-|---5--x--5--5----5-5-5-|-7-x-7-7---7-7---|
|-5-x-5-5---5-5-5-|---5--x--5--5----5-5-5-|-9-x-9-9---9-9---|
|---x-6---------6-|------x--6-----------6-|-7---7-------7---|
|-----------------|-----------------------|-----------------|
|-----------------|-----------------------|-----------------|
|-----------------|-----------------------|-----------------|


  D7                A                     F9 E9
  E E E E E E E E   E E E E E E E E   E E  E E +Q   Q
|-8-9-5---8-9-5---|-8-9-5---5-------|-5----8-7-(7)-----||
|-------5-------5-|-------5---5-7-5-|-5----8-7-(7)-----||
|-----------------|-----------------|------8-7-(7)-----||
|-----------------|-----------------|------7-6-(6)-----||
|-----------------|-----------------|------------------||
|-----------------|-----------------|------------------||
|
| E E E E E E E E   E E E E E E E E   E E  E E +Q   Q
|-5-x-5-5---5-5-5-|-5-x-5-5---5-5-5-|-5-5--8-7-(7)-----||
|-7-x-7-7---7-7-7-|-5-x-5-5---5-5-5-|-5-5-10-9-(9)-----||
|---x-5---------5-|---x-6---------6-|-6-6--8-7-(7)-----||
|-----------------|-----------------|------------------||
|-----------------|-----------------|------------------||
|-----------------|-----------------|------------------||


 Verse
    A
  E E E E E E E E    E  E E E E E E E   E E E E E E E E
|-8-9-5-5---5-5---|-/5-/5-5-5-----5-5-|-8-9-5---5-------|
|---------5-----5-|-/5-/5-5---5-7-----|-------5---5-7-5-|
|-----------------|-------------------|-----------------|
|-----------------|-------------------|-----------------|
|-----------------|-------------------|-----------------|
|-----------------|-------------------|-----------------|
|
| Q   E E Q   Q      Q    E E Q   E E   E E E E E E E E
|-----5-5-----5---|-------5-5-----5-5-|-x-x-5-5---5-5-x-|
|-----5-5-----5---|-------5-5-----5-5-|-x-x-5-5-----5-x-|
|-----6-------6---|-------6-----------|-x-x-6-----------|
|-----------------|-------------------|-----------------|
|-----------------|-------------------|-----------------|
|-----------------|-------------------|-----------------|


                     D7
   E E E E E E E E   E E E E E E a E E   E E E E     E E E E
|-/5-5-5-5-------5-|-7-9-5---5-------5-|-8-8-8-8b8.5-------5-|
|-/5-5-5-5---5-7---|-------5---5-8p7---|-7-7-7-7b7.5---5-7---|
|------------------|-------------------|---------------------|
|------------------|-------------------|---------------------|
|------------------|-------------------|---------------------|
|------------------|-------------------|---------------------|
|
|  E E E E E E E E   E E E E E E   E E   E E E E     E E E E
|--x-x-5-5-x-x-5-x-|-x-x-5-5-x-x---5-x-|-x-x-5-5-------x-5-x-|
|--x-x-5-5-x-x-5-x-|-x-x-7-7-x-x---7-x-|-x-x-7-7-------x-7-x-|
|--x-x-----x-x-6-x-|-x-x-5-5-x-x---5-x-|-x-x-5-5-------x-5-x-|
|------------------|-------------------|---------------------|
|------------------|-------------------|---------------------|
|------------------|-------------------|---------------------|


  A                                                     E7
                            |----3----|
  E E E     E E     E E E   E    E    E E E E E   E E   E E E E E E E E
|-8---8b8.5-8-8b8.5-----5-|-7b8-(7)-----5-5---8b9-5---|-8-9-5---8-9-5---|
|-7-7-7b7.5-7-7b7.5-5-7---|-----------7-7-5-5-------5-|-------5-------5-|
|-------------------------|---------------------------|-----------------|
|-------------------------|---------------------------|-----------------|
|-------------------------|---------------------------|-----------------|
|-------------------------|---------------------------|-----------------|
|
| E E E     E E     E E E   E       E   E E E E   E E   Q   Q   Q   Q
|-x-5-5-----5-------x-5-x-|-x-------5---5-5---x---5-x-|-----7-------7---|
|-x---5-----5-------x-5-x-|-x-----------5-5---x---5-x-|-x---9-------9---|
|-x---6-------------x---x-|-x-----------------x---6-x-|-x---7-------7---|
|-------------------------|---------------------------|-----------------|
|-------------------------|---------------------------|-----------------|
|-------------------------|---------------------------|-----------------|


  D7                    A                      F7 E7
  E E   E E E E   E E   E E   E E E E E E   Q   E E +Q   Q
|-8-8b9-5---8-8b9-5---|-8-8b9-5---5-------|-5---8-7-(7)-----||
|---------5---------5-|---------5---5-7p5-|-5---8-7-(7)-----||
|---------------------|-------------------|-----8-7-(7)-----||
|---------------------|-------------------|-----7-6-(6)-----||
|---------------------|-------------------|-----------------||
|---------------------|-------------------|-----------------||
|
| Q     Q   Q     Q     Q     E E E E Q     Q   E E +Q   Q
|-------7---------7---|-------5-5---x-5---|-----8-7-(7)-----||
|-------9---------9---|-------5-5---x-5---|----10-9-(9)-----||
|-------7---------7---|-------6-----x-----|-----8-7-(7)-----||
|---------------------|-------------------|-----------------||
|---------------------|-------------------|-----------------||
|---------------------|-------------------|-----------------||


  $
  A
                             ~
                     |--3--|
  W              E E E E   E E E Q     W
|--------------|-----------7-5-x-x---|-----------------|
|--------------|---5h7p5-------x-x---|-----------------|
|--------------|---------------------|-----------------|
|--------------|---------------------|-----------------|
|--------------|---------------------|-----------------|
|--------------|---------------------|-----------------|
|
| Q  E E Q  Q    Q   E   E   Q   E E   E E E E E E E E
|----5-5----5--|-----5---5-------5-5-|-x-x-5-5---5-5-x-|
|----5-5----5--|-----5---5-------5-5-|-x-x-5-5-----5-x-|
|----6------6--|-----6---------------|-x-x-6-----------|
|--------------|---------------------|-----------------|
|--------------|---------------------|-----------------|
|--------------|---------------------|-----------------|


                        D7
              ~                                       ~
    |--3--|                                 |--3--|
  E E E   E E E E Q     W                 E E E   E E E E Q
|-----------7-5-5-5---|-----------------|-----------7-5-x------|
|---5h7---5-----5-5---|-----------------|---5h7p==5------------|
|---------------------|-----------------|----------------------|
|---------------------|-----------------|----------------------|
|---------------------|-----------------|----------------------|
|---------------------|-----------------|----------------------|
|
| E E   E   E E E E E   E E E E E E E E   E E   E   E E E E E
|-x-x---5---5-x-x-5-x-|-x-x-5-5-x-x-5-x-|-x-x---5---5---x-5-x--|
|-x-x---5---5-x-x-5-x-|-x-x-7-7-x-x-7-x-|-x-x---7---7---x-7-x--|
|-x-x---------x-x-6-x-|-x-x-5-5-x-x-5-x-|-x-x---5---5---x-5-x--|
|---------------------|-----------------|----------------------|
|---------------------|-----------------|----------------------|
|---------------------|-----------------|----------------------|


  A                                       E7
                                ~
                      |--3--|
  W                 E E E   E E E E Q     Q  q  Q  q
|-----------------|-----------7-5-x-x---|----7-----7--|
|-----------------|---5h7p==5-----x-x---|----9-----9--|
|-----------------|---------------------|----7-----7--|
|-----------------|---------------------|-------------|
|-----------------|---------------------|-------------|
|-----------------|---------------------|-------------|
|
| E E E E E E E E   E E   E   E E E E E   Q  Q  Q  Q
|-x-5-5-5---x-5-x-|-x-5---5---5---x-5-x-|----7-----7--|
|-x---5-5---x-5-x-|-x-----5---5---x-5-x-|-x--9-----9--|
|-x---6-----x---x-|-x-------------x-6-x-|-x--7-----7--|
|-----------------|---------------------|-------------|
|-----------------|---------------------|-------------|
|-----------------|---------------------|-------------|


    To Coda   &
                A                   F7 E7
                                              |-3-|
  Q  q  Q  q    Q  q   H        E E  E E +Q   E E E
|----7-----7--|----5----------|------8-7-(7)--5---5-||
|----9-----9--|----5----------|------8-7-(7)--5h7-5-||
|----7-----7--|----6----------|------8-7-(7)--------||
|-------------|---------------|------7-6-(6)--------||
|-------------|---------------|---------------------||
|-------------|---------------|---0-----------------||
|
| Q  Q  Q  Q    Q  E E E E Q    Q    E E +Q   Q
|----7-----7--|----5-5---x-5--|------8-7-(7)--------||
|----9-----9--|----5-5---x-5--|-----10-9-(9)--------||
|----7-----7--|----6-----x----|------8-7-(7)--------||
|-------------|---------------|---------------------||
|-------------|---------------|---------------------||
|-------------|---------------|---------------------||


 Guitar Solo
  A
                                        ~
  |--3--| |--3--| |-3-| |-3-|                   |---3---|
  E   E E E E   E E E E E E E   E     E Q   E E E   E   E
|-----5-5-5-5---5-5-5-5-5---5-|-8b8.5-5-8---x-5---------5-|
|-8b9-5-5-5-5---5-5-5-5-5-7-5-|-------5-----x-5-----5-----|
|-----------------------------|-----------------7b8-------|
|-----------------------------|---------------------------|
|-----------------------------|---------------------------|
|-----------------------------|---------------------------|
|
| Q       E   E   Q     Q       Q       E E Q   E     E
|---------5---5---------5-----|---------5-5-----5-----5---|
|---------5---5---------5-----|---------5-5-----5-----5---|
|---------6-------------6-----|---------6-----------------|
|-----------------------------|---------------------------|
|-----------------------------|---------------------------|
|-----------------------------|---------------------------|


  |---3---| |--3--| |--3--| |--3--|
  E   E   E E E   E E E   E E E   E
|-----5---5-5-5---5-5-5---5-------5---|
|-8b9-5---5-5-5---5-5-5---5-7-5---5---|
|-------------------------------------|
|-------------------------------------|
|-------------------------------------|
|-------------------------------------|
|
| E     E   E   E   E   E   E   E
|-x-----x---5---5-------5---5---x-----|
|-x-----x---5---5-----------5---x-----|
|-x-----x---6-------------------------|
|-------------------------------------|
|-------------------------------------|
|-------------------------------------|


                           D7
                           |--3--|   |---3---| |---3---|   |---3---|
  E     E E    E Q   E E   S  S  S E E E     E S    S  S E E E     E
|-8b8.5-5--------------5-|-------------------5---------------------5-|
|-7b7.5-5-8b9-10-------5-|-----------5-------5---------------------5-|
|------------------------|-7-(7)-5---5-7b8-----7b8-(7)-5---5-7b9-----|
|------------------------|---------7---------------------7-----------|
|------------------------|-------------------------------------------|
|------------------------|-------------------------------------------|
|
| E     E E    E E E E E   E       E E     E   E         E E     E
|-x-----x-5----5-x-x-5-x-|-x-------x-5-----5---x---------x-5-----x---|
|-x-----x-5----5-x-x-5-x-|-x-------x-7-----7---x---------x-7-----x---|
|-x-----x--------x-x-6-x-|-x-------x-5-----5---x---------x-5-----x---|
|------------------------|-------------------------------------------|
|------------------------|-------------------------------------------|
|------------------------|-------------------------------------------|


                  ~
  |---3---|
  S    S  S E E E E  E  E S S
|-------------------17\--------|
|-------------------17\--------|
|-7b8-(7)-5---5-----------0----|
|-----------7-------------0-0--|
|-----------------x------------|
|-----------------x------------|
|
| E         E E E E  E  E E
|-x---------x-5-5----x--5-x----|
|-x---------x-7-7----x--7-x----|
|-x---------x-5-5----x--5-x----|
|------------------------------|
|------------------------------|
|------------------------------|


  A
          |---3---| |---3---| |---3---|
  S S S S E E     E E E     E E E     E
|-8-5---5---------5---------5-5-------5-|
|---5-8-5---------5---------5-5-------5-|
|---------7-7b9-----7-7b9-------7b9-----|
|---------------------------------------|
|---------------------------------------|
|---------------------------------------|
|
| E   E   E     E   E     E   E     E
|-x---5---5-----5---------x---5-----x---|
|-x-------5-----5---------x---5-----x---|
|-x-------6---------------x---------x---|
|---------------------------------------|
|---------------------------------------|
|---------------------------------------|


                              E7
            ~
  |--3--|                     |--3--|
  S  S  S E Q   S S E E S S   E S S E E   E E   E  E  E
|-------------------5---5-8-|-5-----5-----5-----5-----5-|
|---------------x-x-5-8-5---|-5-8p5---5---5-----5-----5-|
|-7-(7)p5---5---x-x---------|---------7b9---7b9---------|
|---------7-----x-x---------|---------------------<7>---|
|---------------------------|---------------------------|
|---------------------------|---------------------------|
|
| E       E E E E   E E E     Q       e   e Q      q
|-x-------5-5-5-----x-5-x---|---------7---7--------7----|
|-x---------5-5-----x-5-x---|---------9---9--------9----|
|-x-----------------x-6-x---|---------7---7--------7----|
|---------------------------|---------------------------|
|---------------------------|---------------------------|
|---------------------------|---------------------------|


  D7
          |---3---| |--3--| |--3--|
  S S S S E E     E E E   E S  S  S E
|-8-5-8-5---------5-------5-----------|
|-----8-5-----------------5-----------|
|---------7-7b9-----7-7b9---7-(7)p5---|
|-----------------------------------7-|
|-------------------------------------|
|-------------------------------------|
|
| Q       e     e   Q       q
|---------5-----5-----------5---------|
|---------7-----7-----------7---------|
|---------5-----------------5---------|
|-------------------------------------|
|-------------------------------------|
|-------------------------------------|


  A                              F7   E7
  ~
      |---3---|
  E E E   E   E H          Q      Q       E  E E E
|---5---------5----------|----------------5----5-5--||
|---5-----5-----8b10-----|-8b10---8b10-------5-5-5--||
|-5---7b8----------------|--------------------------||
|------------------------|--------------------------||
|------------------------|--------------------------||
|------------------------|--------------------------||
|
| Q   e     e   Q     q    Q      E    E +Q    Q
|-----5-----5---------5--|--------8----7-(7)--------||
|-----5-----5---------5--|-------10----9-(9)--------||
|-----6------------------|--------8----7-(7)--------||
|------------------------|--------------------------||
|------------------------|--------------------------||
|------------------------|--------------------------||


  A
  |-3-| |--3--| |-3-| |-3-|    |-3-| |--3--| |-3-| |--3--|
  E E E E E   E E E E E E E    E E E E E   E E E E E E   E
|-8-5-5-5-5---5-5-5-5-5-5-5-|--5-5-5-5-5---5-5-5-5-5-5---5-|
|-8-5-5-5-5---5-5-5-5-5-5-5-|-/5-5-5-5-5---5-5-5-5-5-5---5-|
|---------------------------|------------------------------|
|---------------------------|------------------------------|
|---------------------------|------------------------------|
|---------------------------|------------------------------|
|
| Q     E   E   Q     Q        Q     E   E   Q     E   E
|-------5---5---------5-----|--------5---5---------5---5---|
|-------5---5---------5-----|--------5---5---------5---5---|
|-------6-------------6-----|--------6---------------------|
|---------------------------|------------------------------|
|---------------------------|------------------------------|
|---------------------------|------------------------------|


  |---3---|  |---3---|  |---3---|  |---3---|
  E  E    E  E  E    E  E  E    E  E  E    E
|--------17-17-17---17-17-17---17-17-17---17--|
|-5s17------17-17---17-17-17---17-17-17---17--|
|---------------------------------------------|
|---------------------------------------------|
|---------------------------------------------|
|---------------------------------------------|
|
| E    E     E    E     E    E     E    E
|-x----x-----5----5----------5-----5----x-----|
|-x----x-----5----5----------------5----x-----|
|-x----x-----6--------------------------------|
|---------------------------------------------|
|---------------------------------------------|
|---------------------------------------------|


   |---3---|  |---3---|  |---3---|  |---3---|
   E  E    E  E  E    E  E  E    E  E  E    E
|----17------17------17----17------17------17-|
|-20------20----20------20------20----20------|
|---------------------------------------------|
|---------------------------------------------|
|---------------------------------------------|
|---------------------------------------------|
|
|  E    E     E    E     E    E     E    E
|--x----x-----5----5-----x----x-----5----x----|
|--x----x-----5----5-----x----x-----5----x----|
|--x----x----------------x----x-----6----x----|
|---------------------------------------------|
|---------------------------------------------|
|---------------------------------------------|


  D7
   ~~
                                                   |-3-|
   H        S  S  S  S  E  E    E  E  S  S  S  S  +E   Q       Q
|-20-------17----------------|-------------17---------20b22---20b20.5----|
|-------------20-17-20-------|----------17----17-(17)--------------------|
|----------------------19-17-|----17-19----------------------------------|
|----------------------------|-19----------------------------------------|
|----------------------------|-------------------------------------------|
|----------------------------|-------------------------------------------|
|
|  E E E E  E     E     E  E    E  E  E     E      E        E  E      E
|--x-x-5-5--x-----x-----5--x-|--x--x--5-----5---------------x--5------x--|
|--x-x-7-7--x-----x-----7--x-|--x--x--7-----7---------------x--7------x--|
|--x-x-5-5--x-----x-----5--x-|--x--x--5-----5---------------x--5------x--|
|----------------------------|-------------------------------------------|
|----------------------------|-------------------------------------------|
|----------------------------|-------------------------------------------|


  A
           |--3--|   |--3--|
   S  E.   E E   E   E E   E S E.
|-17--------------------------------|
|-17--------------------------------|
|----\7----5-----7b8-7-5-----5-7----|
|------------7-------------7--------|
|-----------------------------------|
|-----------------------------------|
|
|  E     E E   E     E   E   E    E
|--x-----5-5---5---------x---5----x-|
|--x-------5---5---------x---5----x-|
|--x-------6-------------x--------x-|
|-----------------------------------|
|-----------------------------------|
|-----------------------------------|


                                E7
  |--3--|         |-3-|
  E E   E Q       S S Q   E E   S S S S E   E E   E E E
|-----------------------------|-8p5---5-----5-----5---5-|
|-----------------------------|-----8-5-----5-----5---5-|
|-7p5-----5b5.5-----------5---|---------7b9---7b9-------|
|-------7---------7p5-------0-|-------------------------|
|---------------------7-----0-|---------------------0---|
|-----------------------------|-------------------------|
|
| E   E   E     E E     E E E   Q       Q     Q     Q
|-x---5---5-----5-------x-5-x-|---------7-----------7---|
|-x-------5-----5-------x-5-x-|-x-------9-----------9---|
|-x---------------------x-6-x-|-x-------7-----------7---|
|-----------------------------|-------------------------|
|-----------------------------|-------------------------|
|-----------------------------|-------------------------|


  D7                                A
                                    ~
          |---3---|                     |---3---| |--3--| |--3--|
  S S S S E E     E E   E S S S S   E E E   E   E E   E E E   E E
|-8-5-------------5-----5-5-------|---5---------5-----5-5-----5-5-|
|---5-8-5---------5-----5-5-------|---5-----5---5-8b9-5-5-8b9---5-|
|---------7-7b8-----7b9-----8p7---|-5---7b9-----------------------|
|-------------------------------7-|-------------------------------|
|---------------------------------|-------------------------------|
|---------------------------------|-------------------------------|
|
| Q       e     e   Q     q         Q   e     e   Q       q
|---------5-----5---------5-------|-----5-----5-----------5-------|
|---------7-----7---------7-------|-----5-----5-----------5-------|
|---------5---------------5-------|-----6-------------------------|
|---------------------------------|-------------------------------|
|---------------------------------|-------------------------------|
|---------------------------------|-------------------------------|


           F7      E7
  |--3---|  |--3---|  |-3--| |-3-|
  E    E E  E  E   E  E  E E E E E
|------5-5--8--8---7--7--7-7-----5---|
|------5-5-10-10---9--9--9-9-5-7-5---|
|-8b10-------------------------------|
|------------------------------------|
|------------------------------------|
|------------------------------------|
|
| Q         e    e   +q      Q
|-----------8----7---(7)-------------|
|----------10----9---(9)-------------|
|-----------8----7---(7)-------------|
|------------------------------------|
|------------------------------------|
|------------------------------------|


  A
                      |-3-|   |--3--|
  E E E     E E     E E E E   E E   E E E E E   E E
|-8---8b8.5-8-8b8.5-8-----5-|-7-7b8---5---5-8b9-5---|
|-7-7-7b7.5-7-7b7.5---5-7---|-------7-7-5---------5-|
|---------------------------|-----------------------|
|---------------------------|-----------------------|
|---------------------------|-----------------------|
|---------------------------|-----------------------|
|
| Q   E     E Q       Q       Q       E E Q     E E
|-----5-----5---------5-----|---------5-5-------5-5-|
|-----5-----5---------5-----|---------5-5-------5-5-|
|-----6---------------6-----|---------6-------------|
|---------------------------|-----------------------|
|---------------------------|-----------------------|
|---------------------------|-----------------------|


  |--3--| |------3------|     |------3------|     |------3------|
  E E   E E     E       E     E     E       E     E     E       E
|-8-8---8-8b8.5-8b8.5---8b8.5-8b8.5-8b8.5---8b8.5-8b8.5-8b8.5---8b8.5-|
|-7-----7-7b7.5-7b7.5---7b7.5-7b7.5-7b7.5---7b7.5-7b7.5-7b7.5---7b7.5-|
|---------------------------------------------------------------------|
|---------------------------------------------------------------------|
|---------------------------------------------------------------------|
|---------------------------------------------------------------------|
|
| E   E   E           E       E           E       E           E
|-x---x---5-----------5-------------------5-------5-----------x-------|
|-x---x---5-----------5---------------------------5-----------x-------|
|-x---x---6-----------------------------------------------------------|
|---------------------------------------------------------------------|
|---------------------------------------------------------------------|
|---------------------------------------------------------------------|


                                          D7
            ~~                                             ~~~~~
  |--3---|       |---3---|
  E E    E  E  E E  E    E     +Q          H        +E  E  E  E
|-5--------------8-10---10b12-(10)b12---|-10-------(10)-8-------|
|-5-8s==10-10-10------------------------|-----------------10-10-|
|---------------------------------------|-----------------------|
|---------------------------------------|-----------------------|
|---------------------------------------|-----------------------|
|---------------------------------------|-----------------------|
|
| E   E     E  E E    E         E     E    E E E E   E  E  E  E
|-x---x-----5--5-x----x---------5-----x-|--x-x-5-5---x--x--5--x-|
|-x---x-----5--5-x----x---------5-----x-|--x-x-7-7---x--x--7--x-|
|-x---x----------x----x---------6-----x-|--x-x-5-5---x--x--5--x-|
|---------------------------------------|-----------------------|
|---------------------------------------|-----------------------|
|---------------------------------------|-----------------------|


  |---3---|          |---3---| |---3---|
  E  E    E     E E  S S E   E E   E   E
|-8-10---10b12-10-8----------5------------|
|-------------------10-8s5----------------|
|------------------------------7b8-7---5--|
|-----------------------------------------|
|-----------------------------------------|
|-----------------------------------------|
|
| E    E        E E  E     E   E     E
|-x----x--------5-5--------x---5-----x----|
|-x----x--------7-7--------x---7-----x----|
|-x----x--------5-5--------x---5-----x----|
|-----------------------------------------|
|-----------------------------------------|
|-----------------------------------------|


  A
  ~~~~
      |--3--|   |--3--| |--3--|
  E E E E   E   E E   E E.  S E
|---------------5-5-----------5-|
|---------------5-5---5-8b9-5---|
|-----5-7---7b9-----------------|
|-7-7---------------------------|
|-------------------------------|
|-------------------------------|
|
| E E E   E     E   E   E   E
|-x-5-5---5---------x---5---x---|
|-x---5---5---------x---5---x---|
|-x---6-------------x-------x---|
|-------------------------------|
|-------------------------------|
|-------------------------------|


                               E7
                   |---3---|           |--3--| |--3--|
   Q     E E +E  E E   E   E   S S S S E E   E E E   E E E
|-19\------5-(5)-5-----5---5-|-8-5-----------------------5--|
|-19\------5-(5)-5-----5---5-|-----8-5-------5-------5---5--|
|------------------7b8-------|---------7-7b9---7-7b9--------|
|----------------------------|------------------------------|
|----------------------------|-------------------------0----|
|-------/5-------------------|------------------------------|
|
|  E  E  E E  E  E E     E     Q       Q       Q       Q
|--x--5--5-5-----x-5-----x---|---------7---------------7----|
|--x-----5-5-----x-5-----x---|-x-------9---------------9----|
|--x-------------x-6-----x---|-x-------7---------------7----|
|----------------------------|------------------------------|
|----------------------------|------------------------------|
|----------------------------|------------------------------|


  D7
                      |-3-|
  S S S S E   E S S E E E E
|-8-5---5-----5-----5-----------|
|-----7-5-----5-----5-----------|
|---------7b8---8p7---8p7-5b5.5-|
|-------------------------------|
|-------------------------------|
|-------------------------------|
|
| Q       e   e Q     q
|---------5---5-------5---------|
|---------7---7-------7---------|
|---------5-----------5---------|
|-------------------------------|
|-------------------------------|
|-------------------------------|


                                     D.S. al Coda
                                     F7E7
  ~
      |---3---| |--3--| |-3-|
  E E E   E   E E E   E E E E   E    E  E E +Q   Q
|-------------5---------------|------5--------------||
|---------5-----8-----5-------|-----------9-(9)-----||
|---5-7b9---------7b8---7-5---|-5tr6------7-(7)-----||
|-7-------------------------7-|-----------x-(x)-----||
|-----------------------------|---------7-7-(7)-----||
|-----------------------------|---------------------||
|
| Q   e     e   Q       q       Q       E E +Q   Q
|-----5-----5-----------5-----|---------8-7-(7)-----||
|-----5-----5-----------5-----|--------10-9-(9)-----||
|-----6-----------------------|---------8-7-(7)-----||
|-----------------------------|---------------------||
|-----------------------------|---------------------||
|-----------------------------|---------------------||


  &
  A                                                               A6
                                                        ~~~~~~~
  H     Q  E E   +H      S E.  S E.    S  E.     S E. S E. +Q     Q   Q  H
|--------------|-----------5--------|---------------------------|-------------*|
|----------6-6-|-(6)-----------8p5--|-----5b5.5-----------------|-7\----------*|
|----------5-5-|-(5)----/6----------|--7p=5b5.5-----------------|-6\----------*|
|----------6-6-|-(6)----------------|------------7--------------|-7\----------*|
|--------------|--------------------|--------------7s=5-3--(3)--|-------------*|
|--------------|--------------------|---------------------------|-------------*|
|
| q  Q  Q  E E   +H.           Q      +Q         Q    H           W
|-5------------|--------------^5----|-(5)-------^5---^5---------|-------------*|
|-5--------6-6-|-(6)----------^5----|-(5)-------^5---^5---------|-------------*|
|----------5-5-|-(5)----------^6----|-(6)-------^6---^6---------|-------------*|
|----------6-6-|-(6)----------^5----|-(5)-------^5---^5---------|-------------*|
|--------------|--------------------|---------------------------|-------------*|
|--------------|--------------------|---------------------------|-------------*|



Duration Legend
---------------
W - whole; H - half; Q - quarter; E - 8th; S - 16th; T - 32nd; X - 64th; a - acciaccatura
+ - note tied to previous; . - note dotted; .. - note double dotted
Uncapitalized letters represent notes that are staccato (1/2 duration)
Irregular groupings are notated above the duration line
Duration letters will always appear directly above the note/fret number it represents the
duration for.  Duration letters with no fret number below them represent rests.  Multi-
bar rests are notated in the form Wxn, where n is the number of bars to rest for.  Low
melody durations appear below the staff

Tablature Legend
----------------
 h   - hammer-on
 p   - pull-off
 b   - bend
 pb  - pre-bend
 r   - bend release (if no number after the r, then release immediately)
 /\  - slide into or out of (from/to "nowhere")
 s   - legato slide
 S   - shift slide
 - natural harmonic
[n]  - artificial harmonic
n(n) - tapped harmonic
 ~   - vibrato
 tr  - trill
 T   - tap
 TP  - trem. picking
 PM  - palm muting
\n/  - tremolo bar dip; n = amount to dip
 \n  - tremolo bar down
 n/  - tremolo bar up
/n\  - tremolo bar inverted dip
 =   - hold bend; also acts as connecting device for hammers/pulls
 <> - volume swell (louder/softer)
 x   - on rhythm slash represents muted slash
 o   - on rhythm slash represents single note slash

Misc Legend
-----------
 |  - bar
||  - double bar
||o - repeat start
o|| - repeat end
*|  - double bar (ending)
 :  - bar (freetime)
 $  - Segno
 &  - Coda
Tempo markers -  = BPM(8/16=s8/s16), where s8 = swing 8ths, s16 = swing 16ths

comments
We did not receive enough feedback on this tab! Please rate:
1 2 3 4 5
I want to post or [tab]
guest
You may want to rate the tab now too:
select rating
Please do not post tabs as comments. Select "correction" instead!