Oops, an error
Loading. Please wait.

Texas Flood Live Tab

3,412 views 3 this week
no commentswrite comment
1 2 3 4 5
please rate
add to favorites launch autoscroll
font size
0
reset
Autoscroll
+/-
esc
set tempo
stop
Contributor
Tuning
D# G# C# F# A# D#
WARNING: You are trying to view
                                    content from Ultimate-Guitar.com
                                    in an unauthorized application,
                                    which is prohibited.

                                    Please use an official Ultimate
                                    Guitar Tabs application for iPhone,
                                    iPad or Android to access legitimate
                                    chords, guitar, bass, and drum tabs
                                    from Ultimate-Guitar.com database.

                                    Type "ultimate guitar tabs" in Apple
                                    App Store's or Android Market's
                                    search to find the application.
#----------------------------------PLEASE NOTE---------------------------------#
#This file is the author's own work and represents their interpretation of the #
#song. You may only use this file for private study, scholarship, or research. #
#------------------------------------------------------------------------------#

TEXAS FLOOD (Live)
As recorded by Stevie Ray Vaughn and Double Trouble

Transcribed by mr.pbody
        

Words and Music by L. Davis and J. Scott

Gtr I (D# G# C# F# A# D#) - 'Untitled'

 Intro
  Q.=60
  N.C.               G
 12/8
  Gtr I
  W        E E E E   a Q  E a Q  E E E E  E E  E
|------------------|-----------------------------|
|------------------|---3--5---3------5-5---------|
|------------------|-3h4--5-3h4------5-5---------|
|--------------2-5-|-------------5-x--------7-10-|
|------------5-----|---------------------10------|
|------------------|-----------------------------|


  C
  a Q   E a Q   E E e E  Q   E
|-------------------8---15\----|
|---8--10---8-------8---15\----|
|-8h9--10-8h9-------9----------|
|--------------10-x------------|
|------------------------------|
|------------------------------|


  G
           ~~~~~~~~~~                           ~
                          |-3-|     |-3-| |-3-|
  S   S S  S +E  +Q   S S S S S S S S S S S S S Q
|-------3-------------3---3---------3----------------|
|-----3---/8-(8)-(8)----3---6p3---3---6p3------------|
|-5b6---------------------------5---------5p3---3----|
|---------------------------------------------5------|
|----------------------------------------------------|
|----------------------------------------------------|


                D7             G
                                       |-3-|      |-3-|
  S s E E E E E  Q.   Q    E   Q.      S S S Q    S S S Q     Q.
|--------------------------3-|-6b6.5---3---------------------------|
|----------------3---------3-|-5b5.5-----6p3-----------------------|
|----------------5----5b7----|---------------5b7--5p3--------------|
|-5-3------------4-----------|------------------------5-3tr5-------|
|-------1-3-4-5-(5)----------|-------------------------------------|
|----------------------------|-------------------------------------|


  C                     G
                   ~
  H    Q  S S Q  E Q    S S S S +E  E Q     Q.   E  Q
|---------------------|---------------------------------|
|---------------------|----------------------------/6---|
|---------5-5-3--5-2--|----------------------------/7---|
|---------------------|-3-------------3tr5--------------|
|---------------------|---5-4-3-(3)-2-------------------|
|---------------------|---------------------------------|


                                  C
  E Q  E S S S S S S Q     Q.     Q.   E E     S S S S S  S  E Q.
|-------------------------------|--------6b6.5-3---------/3-/3------|
|-5-3---------------------------|--------5b5.5---3-------/3-/3------|
|-5-3---------------------------|------------------5-3--------------|
|--------5-3---------3tr5-------|-----------------------------------|
|------------5-4-3-2------------|-----------------------------------|
|-------------------------------|-----------------------------------|


  Q.   S S S S S S S S E S. T S S S S E
|----------6-8-8-6---8------6-----3-----|
|--------8---------------8----6S3---3---|
|-------------------------------------5-|
|---------------------------------------|
|---------------------------------------|
|---------------------------------------|


  G
  S   S E S S E    S S S S S S S S  S S S S S S  S S
|------------------------------------------------------|
|---------5-3--------------------6----6-------6----6---|
|-5b6r5-3-5-3------------3-5-5S7---/7-----5S7---/7-----|
|-------------3tr5-3-5---------------------------------|
|------------------------------------------------------|
|------------------------------------------------------|


                                |-3-|     |-3-|
   S S  S S  S S  S S  S S  S S S S S S S S S s Q.
|----------------------------------------------------|
|----6----6----6----6----6----6----------------------|
|-/7---/7---/7---/7---/7---/7-----5S3-5-3------------|
|-------------------------------------------5-3------|
|----------------------------------------------------|
|----------------------------------------------------|


  D7
                     |-3-| |-3-|  |-3--|         |-3-|
  Q.   S S S S +S  S S S S S S S +S  S S T T T T S S S S S
|-------------------------------------------------------------|
|------------------6---------6---------------3----------------|
|--------3-5S7-(7)---7p5S3---7-5-(5)S3---3h5---3-3------------|
|------5-------------------------------5-----------5-3--------|
|------------------------------------------------------5-4----|
|-------------------------------------------------------------|


  C
  Q.   E S S S S T T T T S S +S  S S S S S S S
|------------6---8h9p8p6---------6-----3-------|
|--------8-8---8-----------8-(8)---6S3---3-----|
|------------------------------------------5p3-|
|----------------------------------------------|
|-3--------------------------------------------|
|----------------------------------------------|


  G                           C
                    |-3-|               |-3-|
  S S S S    +E   E S S S S S Q.   E. S S S S
|-----------------------------------------------|
|-------------------------------------------3---|
|---5-3-5b6==(5)r---3-------------------3h5-----|
|-----------------5---5p3-------------5---------|
|-------------------------5-4-3-----------------|
|-----------------------------------------------|


  G                          D7           G
                                                 ~~~~~~
          |-3-|
  T T T T S S S E    E S S E  Q.   Q.     E    S S +E  E. E.    H    Q
|---------------------------------------|-8b10-6----------6b6.5---------|
|-----------------------------3---------|--------8-(8)-8----------------|
|-5-3---3---------------------5---------|-------------------------------|
|-----5---5-3-----------------4---------|-------------------------------|
|-------------5-3tr5---3-4-5-(5)--------|-------------------------------|
|---------------------------------------|-------------------------------|


  C                             G
         ~~~~~~                 ~~~~             ~~~~~~~~
  E    S S +E  E  Q   H    Q    H.        E    S S +E  Q  S S
|-8b10-6---------15\----------|-8b10------8b10-6---------------|
|--------8-(8)-8-15\----------|------------------8-(8)-8--8-8--|
|-----------------------------|--------------------------------|
|-----------------------------|--------------------------------|
|-----------------------------|--------------------------------|
|-----------------------------|--------------------------------|


  Q  E      +E   Q    Q    E      +E   Q
|-6--6b6.5==(6)r-6b7--6b7--6b7.5==(6)r-6b8--|
|-------------------------------------------|
|-------------------------------------------|
|-------------------------------------------|
|-------------------------------------------|
|-------------------------------------------|


  C
    ~~~~~~                         ~~~~~~
               |---3---|
  S S +Q   S S S   +S  S S S S S S S +E   Q   E
|-6--------------------------------------15\-----|
|---8-(8)--6---------------------6-------15\-----|
|------------7-5b6r(5)p3---3-5S7---3-(3)---------|
|------------------------5-----------------------|
|------------------------------------------------|
|------------------------------------------------|


                                  ~~~~~~~~
  Q  S S S S     +E   E    E    S S +E  Q  S S
|--------6-8b10==(8)r-8b10-8b10-6--------------|
|----8-8--------------------------8-(8)-8--8-8-|
|----------------------------------------------|
|----------------------------------------------|
|----------------------------------------------|
|----------------------------------------------|


  G
       ~~~~~~~~~~~~~~~
  E.   S     +E  +Q    E H    Q
|-8b10-8b10==(8)-(8)r------------|
|--------------------------------|
|--------------------------------|
|--------------------------------|
|--------------------------------|
|--------------------------------|


                                 D7
                     ~~~~~
  Q.   Q  E    S   S Q  Q  S S   Q  E      +E   Q      Q    E    +E   Q
|---------8b10-7b8-6-----------|-6--6b6.5==(6)r-6b6.5--6b7--6b7==(6)r-6b7.5--|
|--------------------8--8--8-8-|---------------------------------------------|
|------------------------------|---------------------------------------------|
|------------------------------|---------------------------------------------|
|------------------------------|---------------------------------------------|
|------------------------------|---------------------------------------------|


  C
  Q      E    +E   Q    Q      E    +E   Q
|-7b7.5--7b8==(7)r-7b8--7b8.5--7b9==(7)r-7b9--|
|---------------------------------------------|
|---------------------------------------------|
|---------------------------------------------|
|---------------------------------------------|
|---------------------------------------------|


  G                   C                               G                 D7
         ~~~~~~~~                   ~~~~~~~~~~
                      |-3-| |---3---|                   |-3-|
  E    S S +E  Q  S S S S S S   +S  S +E  +E  E   E   E S S S E E S S E Q  E E Q
|-8b10-6--------------6---------------------------3-|-----------3-----------------||
|--------8-(8)-8--8-8---8---------------------------|-----------3-------3--3-3----||
|-------------------------7-5b7r(5)p3-(3)-(3)-5b6---|-3---------4-------5--5-5----||
|---------------------------------------------------|---5-3-----5-------4--4-4----||
|---------------------------------------------------|-------5-x---3-4-5-5--5-5----||
|---------------------------------------------------|-----------------------------||


 Verse
  G                     C
                        ~~
  H    Q  E E E E E E   Q.   W        E
|-----------3-3-3-3-3-|-3---------------|
|-----------5-5-5-5-3-|-3---------------|
|-----------4-4-4-4-4-|-3---------------|
|-----------5-5-5-5-5-|-2---------------|
|---------------------|-----------------|
|---------------------|-----------------|


  G
        ~~~~~~~~~         ~              ~                    ~
                                             |-3-|
  E    +Q   +Q    S S S S Q  S   +S  S S E   S S S Q  S S E E Q  E Q.
|-----------------3------------------------|--------------3------3-------|
|-------------------3-6p3------------------|----------------3-6--3-------|
|-5b7==(5)--(5)r----------5--5b6r(5)p3---3-|----------3h5----------------|
|--------------------------------------5---|-5-3-------------------------|
|------------------------------------------|-----5-----------------------|
|------------------------------------------|-----------------------------|


  C
  H    Q  E E   +E  E Q    Q.   Q.   H    Q
|-------------------3----|-3-----------------|
|-------------------3----|-3-----------------|
|-----------5b6-(5)------|-3-----------------|
|------------------------|-------------------|
|------------------------|-------------------|
|------------------------|-------------------|


  G
                          ~~~~~~
  E S S     +Q   +Q.    S S +E  S S S   +S  E
|-----8b10==(8)--(8)r---6-----------------------|
|-------------------------8-(8)-6---------------|
|---------------------------------7-5b6r(5)-3---|
|-----------------------------------------------|
|-----------------------------------------------|
|-----------------------------------------------|


                        ~~~~~~~~~
  E S S     +E   E    S S +E  Q.   Q.
|-----8b10==(8)r-8b10-6-----------------|
|-----------------------8-(8)-8---------|
|---------------------------------------|
|---------------------------------------|
|---------------------------------------|
|---------------------------------------|


  D7                           C
                               ~~
  H    Q  E S  S  +E   E E E   Q.   H    Q  Q.
|-------------15-(15)\-------|-3-----------------|
|-------------15-(15)\-----3-|-3-----------------|
|------------------------3---|-3-----------------|
|----------------------------|-------------------|
|----------------------------|-------------------|
|----------------------------|-------------------|


  G                     C
           ~~~~~~         ~~~~~~
  S   S S  S +E  Q  S S S S +E  S S S S E   E
|-------3---------------------------------------|
|-----3---/8-(8)-8--6---6-8-(8)-6---------------|
|-5b6-----------------7-----------7-5p3-5b7-5b7-|
|-----------------------------------------------|
|-----------------------------------------------|
|-----------------------------------------------|


  G                 D7
  |-3-|
  S S S E E E S S E Q  E E Q
|---------3-3------------------||
|---------3-3-------3--3-3-----||
|-5-3-----4-4-------5--5-5-----||
|-----5---5-5-------4--4-4-----||
|-------------3-4-5-5--5-5-----||
|-------3----------------------||


 Verse
  G                    C
                       ~~
  H    Q  Q  E E E E   Q.   H    Q  Q.
|---------3--3-------|-3-----------------|
|---------5--5---5---|-3-----------------|
|---------4--4---5---|-3-----------------|
|---------5--5-----3-|-2-----------------|
|--------------------|-3-----------------|
|--------------------|-------------------|


  G
                        ~~~~~~~~
  E S S     +E   E    S S +E  Q  S S Q  E
|-----8b10==(8)r-8b10-6--------------6--6b6.5==|
|-----------------------8-(8)-8--8-8-----------|
|----------------------------------------------|
|----------------------------------------------|
|----------------------------------------------|
|----------------------------------------------|


                                           ~
  +E   Q    Q      E    +E   Q      S    S Q
|-(6)r-6b7--6b7.5--7b8==(7)r-7b8.5--8b10-6----|
|------------------------------------------8--|
|---------------------------------------------|
|---------------------------------------------|
|---------------------------------------------|
|---------------------------------------------|


  C
                         ~~
  H    Q  E  Q   E E E   Q.   H    Q  Q.
|-----------15\--------|-3-----------------|
|-----------15\------3-|-3-----------------|
|-----------15\----3---|-3-----------------|
|----------------------|-2-----------------|
|----------------------|-------------------|
|----------------------|-------------------|


  G
       |--3--| |--3--|                        |--3--|
  Q.   S   S S S   S S T T T T +S  S Q    S S S S   S S S
|------------3-------3-3h5p3---------6b8--6-3-------------|
|----------3---6b7-3---------6-(6)p3----------3-----3-6-3-|
|------5b6--------------------------------------5b6-------|
|---------------------------------------------------------|
|---------------------------------------------------------|
|---------------------------------------------------------|


        ~
  |-3-|   |-3-|
  S S S E S S S E E E S S E E E Q
|-----------------3-3-------3-3------|
|-----------------5-3-------3-3------|
|-5p3---3---------4-4-3-----4-4------|
|-----5---5p3-----5-5---5-5-5-5------|
|-------------5----------------------|
|------------------------------------|


  D7                    C
                        ~~
  H    Q  Q.    Q   E   Q.   H    Q  Q.
|--------------15\----|-3-----------------|
|--------------15\----|-3-----------------|
|--------------15\----|-3-----------------|
|-------------------x-|-2-----------------|
|---------------------|-------------------|
|---------------------|-------------------|


  G                  C               G               D7
                         ~~~~~         ~~~~~~~~      ~
         |-3-|
  E Q    S S S S S E E   Q  Q  S S   S S +E  E E E E Q  S S S S  Q
|----------3-------6-7b8-----------|-6---------6------------6-8S10---||
|------------3-6S8-------8--8--8-8-|---8-(8)-8---8---6--8-8----------||
|---5b7----------------------------|---------------7-----------------||
|----------------------------------|---------------------------------||
|----------------------------------|---------------------------------||
|----------------------------------|---------------------------------||


 Solo
  G                               C
       ~~~~~~                                                   ~~~~~~~~
   E S S +E  S S E    E H    Q    Q  S S S S    +E  E    E    S S +E  Q  S S
|-10-6-----------8b10-----------|--------6-8b10-(8)-8b10-8b10-6--------------|
|------8-(8)-8-6----------------|----8-8------------------------8-(8)-8--8-8-|
|-------------------------------|--------------------------------------------|
|-------------------------------|--------------------------------------------|
|-------------------------------|--------------------------------------------|
|-------------------------------|--------------------------------------------|


  G
                                          ~~~~~~
  E    Q      Q.   E Q      +E   Q      S S +E  S S Q  E      E  Q    Q      E
|-8b10-6b6.5---------8b10===(8)r-7b8--|-6-----------6--6b6.5==6r-6b7--6b7.5--8b10-|
|-------------------------------------|---8-(8)-8-8-------------------------------|
|-------------------------------------|-------------------------------------------|
|-------------------------------------|-------------------------------------------|
|-------------------------------------|-------------------------------------------|
|-------------------------------------|-------------------------------------------|


  C
      ~~~~~~                            ~
            |-3-|  |---3----| |-3-|
  E S S +E  S S S +S    +S  S S S S S S Q   Q.
|-8-6--------------------------------------15\----|
|-----8-(8)-6-------------------------6----15\----|
|-------------7-5-(5)b7r(5)p3---3S5-5---3---------|
|-----------------------------5-------------------|
|-------------------------------------------------|
|-------------------------------------------------|


                                      ~~~~~~
  Q  S S S S     +E  S S  E    Q    S S +E  S S
|--------6-8b10==(8)-8-8r-8b10-6b7--6-----------|
|----8-8------------------------------8-(8)-8-8-|
|-----------------------------------------------|
|-----------------------------------------------|
|-----------------------------------------------|
|-----------------------------------------------|


  G
  ~~                             ~~~~~~           ~
  Q.   Q.   E Q.      Q        S S +E  S S E Q    Q  S S Q  E
|-6-----------8pb10r==6b7.5--|-6-----------6-7b8---------6--6b7--|
|-------------8pb10r=========|===8-(8)-8-8--------8--8-8---------|
|----------------------------|-----------------------------------|
|----------------------------|-----------------------------------|
|----------------------------|-----------------------------------|
|----------------------------|-----------------------------------|


  D7
                        ~~~~~~~~~~~
  Q    E      +E   Q    Q.      Q.
|-6b7--6b7.5==(6)r-7b8--8b10====8r---|
|------------------------------------|
|------------------------------------|
|------------------------------------|
|------------------------------------|
|------------------------------------|


  C                                                  G                  C
                                         ~~~~~~        ~~~~~~    ~        ~~~~~~~~~~
  Q  E    E     +S   S +S  S E    Q    S S +E  S S   S S +E  S S Q  S S S S +E  E Q  S S
|----8b10-8b10==(8)r-8-(8)p7-8b10-6b7--6-----------|-6------------------6----------------|
|----------------------------------------8-(8)-8-8-|---8-(8)-8-8-8--8-8---8-(8)-8-8--8-8-|
|--------------------------------------------------|-------------------------------------|
|--------------------------------------------------|-------------------------------------|
|--------------------------------------------------|-------------------------------------|
|--------------------------------------------------|-------------------------------------|


  G                 D7                 G
       ~~~          ~
  S S +E  S S E E E Q  S S S S Q       H        Q     Q     Q    Q
|-6-----------6------------6-8-8b10--|-8pb10r===8pb9r=8b10--8b9--8b10--|
|---8-(8)-8-8---8---6--8-8-----------|-8pb10r===8pb9r=8b10--8b9--8b10--|
|-----------------7------------------|---------------------------------|
|------------------------------------|---------------------------------|
|------------------------------------|---------------------------------|
|------------------------------------|---------------------------------|


  C
                                       ~~~~~~
  Q      Q       Q     E E     E     S S +E  S S
|-8pb10r=8pb9.5r=8pb9r=8-8pb10r8b9.5-6-----------|
|-8pb10r=8pb9.5r=8pb9r=8-8pb10r8b9.5---8-(8)-8-8-|
|------------------------------------------------|
|------------------------------------------------|
|------------------------------------------------|
|------------------------------------------------|


  G
  ~~       ~     ~~~            ~      ~~~~~~       ~~~~~~
  Q.   S S E S S Q    E S   +S  Q    S S +Q   S S S S +E  E E E   S S S S S S
|-6------6-------------------------|--------------------------------3-----6---|
|------8---8-6--------6------------|------------------------------3---6S8---8-|
|--------------7-5b7----5b7r(5)p3--|-5------------------------5b7-------------|
|----------------------------------|---5-(5)--3-------------5-----------------|
|----------------------------------|------------5-4-3-(3)---------------------|
|----------------------------------|----------------------3-------------------|


  C
                    ~~~~~~~~
                                        |-3-|
  Q     E    E    S S +E  Q  S S Q      S S S
|-8b10--8b10-8b10-6--------------6b6.5------6----|
|-------------------8-(8)-8--8-8--------8-8------|
|------------------------------------------------|
|------------------------------------------------|
|------------------------------------------------|
|------------------------------------------------|


  H        Q.       Q       Q     E
|-8pb10r===8pb9.5r==8pb8.5r=8b10--8b8.5-|
|-8pb10r===8pb9.5r==8pb8.5r=8b10--8b8.5-|
|---------------------------------------|
|---------------------------------------|
|---------------------------------------|
|---------------------------------------|


  G
  Q      E      E.    E.     E.    E.    Q    E
|-8pb10r=8pb8.5r8b8.5-8pb8.5r8b9.5-8b8.5-8b9--8b10-|
|-8pb10r=8pb8.5r8b8.5-8pb8.5r8b9.5-8b8.5-8b9--8b10-|
|--------------------------------------------------|
|--------------------------------------------------|
|--------------------------------------------------|
|--------------------------------------------------|


    ~~~~~~          ~~~~~~    ~
  S S +E  S S S S S S +E  S S E S S Q  E
|-6-----------6-------------6-------6--6b7-|
|---8-(8)-8-8---8---6-(6)-8---8-8-8--------|
|-----------------7------------------------|
|------------------------------------------|
|------------------------------------------|
|------------------------------------------|


  D7
               ~~~~~~                ~~~~~~
                  |-3--|
  Q    E   E S S +S  S S S   +S  S S E +E   Q
|-7b8--7b8-8-6----------------------------------|
|--------------8-(8)-6--------------------------|
|----------------------7-5b7r(5)p3h5S7-(7)------|
|-----------------------------------------------|
|-----------------------------------------------|
|------------------------------------------15\--|


  C
             ~
                |-3-| |--3--| |-3-| |---3---| |-3--|    |-3-|
  Q  E   S S Q  S S S S   S S S S S S   +S  S S S +S    S S S
|-3------3------3-----------3-----------------------------3---|
|-3------3-6S8----6p3-----3---6p3-----------------------3-----|
|-3--5b7--------------5b7---------5-5b7r(5)p3-3h5-(5)b7-----3-|
|-------------------------------------------------------------|
|-------------------------------------------------------------|
|-------------------------------------------------------------|


  G                C
         ~~~~~       ~~~~~~            ~
  S    S Q  Q  S S S S +E  S S S   +S  Q
|-8b10-6-----------6-----------------------|
|--------8--8--8-8---8-(8)-6---------------|
|----------------------------7-5b7r(5)p3---|
|------------------------------------------|
|------------------------------------------|
|------------------------------------------|


  G                 D7
  S S +E  E E S S E  Q.   +E  S S E
|-----------------------------------|
|--------------------3----(3)-------|
|-5------------------5----(5)-------|
|---5-(5)------------4----(4)-------|
|-----------2-3-4-5-(5)---(5)-3-4-5-|
|---------3-------------------------|


  G                 C
  e Q  W        E   Q.   E Q  E S S S S E E S S
|-3---------------|-----------------------------|
|-3---------------|-----------------------------|
|-4---------------|--------3--------------------|
|-5---------------|-------------5-3-------------|
|-5---------------|-----------------5-4-3---3-2-|
|-----------------|-----------------------------|


  G
    ~~~~~~
                       |-3-|
  S S +Q   H    Q  S S S S S E
|------------------------------|
|------------------3h6-3-------|
|------------------------5p3---|
|-3-5-(5)--------------------5-|
|------------------------------|
|------------------------------|


                         C
                                ~
  E S S E H    Q  Q.     Q.   E Q  S S S S E E  Q
|----------------------|------------------------------|
|----------------------|------------------------------|
|-3--------------------|--------3---------------------|
|---5p3----------------|-----------5p3----------------|
|----------------------|---------------5-4-3----------|
|----------------------|-----------------------15\----|


                           G
                                            ~
  Q  E E E E E E E E E E   Q  E E E   S S E Q  S S e E
|------------------------|------------3----------------|
|------------------------|--------------3-6------------|
|--------------------3-5-|-3------5b7-------5--3-------|
|----------------3-5-----|-----------------------5p3---|
|------1-2-3-4-5---------|-----------------------------|
|----3-------------------|-----------------------------|


                         ~         ~
       |-3-|
  Q.   S S S S   +S  S S E S S E E Q
|---------------------------------------|
|--------6p3----------------------------|
|------------5b7r(5)p3h5p3---------3----|
|--------------------------5p3----------|
|---------------------------------------|
|---------------------------------------|


  D7
                                          ~~~
  Q.    S S S S E   +S    +S  S S   +S  S Q.
|-----------------------------------------------|
|-------6-3-------------------------------------|
|-5b7-------5-3-5b7r(5)b7r(5)p3-5b7r(5)p3-5b7---|
|-----------------------------------------------|
|-----------------------------------------------|
|-----------------------------------------------|


  C
                      ~       ~~~~~~
  Q.   E Q     S    S E S S S S +Q
|--------8b10--8b10-6----------------|
|---------------------8-6------------|
|-------------------------7-5-3-(3)--|
|------------------------------------|
|------------------------------------|
|------------------------------------|


  G                    C
    ~~~~~~       ~~~~~~  ~~~~~~
  S S +Q   S S S S +E  S S +Q   S S S S S S
|-------------------------------------------|
|-------------------------------------------|
|-3---------------------------------------3-|
|---5-(5)--3--------------------------3-5---|
|------------5-4-3-(3)-2-3-(3)--3-4-5-------|
|-------------------------------------------|


  G            D7           G
  ~                                            ~~
  Q  e E S S E  Q.   Q.     Q     E    E    Q  Q.   Q.
|----3--------------------|-8b10--8b10-8b10---------------|
|----3----------3---------|--------------------8----------|
|---------------5---------|-------------------------------|
|-5-------------4---------|-------------------------------|
|------2-3-4-5-(5)--------|-------------------------------|
|-------------------------|-------------------------------|


  C                                 G
                                                  ~~~~~~~  ~
  T  S. Q  E    E E E    E E Q.     Q.     Q    E Q  +S  S Q  S S
|-8S10-----8b10-6---8b10-6--------|-8b10---6b7--8--------6--------|
|-----------------8--------8------|---------------8--(8)---8--8-8-|
|---------------------------------|-------------------------------|
|---------------------------------|-------------------------------|
|---------------------------------|-------------------------------|
|---------------------------------|-------------------------------|


  Q  E E Q      Q    E      +E   Q
|-6--6-7-7b7.5--7b8--7b8.5==(7)r-8b9--|
|-------------------------------------|
|-------------------------------------|
|-------------------------------------|
|-------------------------------------|
|-------------------------------------|


  C
  S S +E  S S T   +T  T T T S.  T T T T T   +T  T T E. T T S S E E
|-6-------------------------------3--------------------------------|
|---8-(8)-6---------------------3---6p3----------------------------|
|-----------7-5b7r(5)p3---3h5b7---------5b7r(5)p3---3--------------|
|-----------------------5-------------------------5----5p3---------|
|----------------------------------------------------------5-4-3---|
|------------------------------------------------------------------|


                   ~~~~~~~~
  Q.   E Q     E S S +E  Q  S S
|--------8b10--8-6--------------|
|------------------8-(8)-8--8-8-|
|-------------------------------|
|-------------------------------|
|-------------------------------|
|-------------------------------|


  G
                ~~~~~~~~
  S    +S      +Q   +Q.   E H        +E
|-8b10r(8)b10==(8)--(8)-----8pb10r===(8)-|
|----------------------------------------|
|----------------------------------------|
|----------------------------------------|
|----------------------------------------|
|----------------------------------------|


                                           D7
                      ~           TP       TP   TP   TP
  +E  Q    +E  Q      Q  S S E E +E        Q.   Q.   Q.   S   S   E S   +S
|-(8)-7b8--(7)-7b8.5---------6-8-(8)b10==|=8----8----8r---8b9-8b9-8-8b9r(8)---|
|---------------------8--8-8-------------|------------------------------------|
|----------------------------------------|------------------------------------|
|----------------------------------------|------------------------------------|
|----------------------------------------|------------------------------------|
|----------------------------------------|------------------------------------|


  C
         ~      ~~
                       |---3---|             |-3-| |-3-|
  S    S Q  E T S. S S S   +S  S T S.   +E   S S S S S S    +E
|-8b10-6------6--------------------------------------------------|
|--------8--8---8--6-------------------------3-6-3---3-----------|
|--------------------7-5b7r(5)p3-3-5b7==(5)r-------5---5b7==(5)r-|
|----------------------------------------------------------------|
|----------------------------------------------------------------|
|----------------------------------------------------------------|


  G                 C
  |-3-|
  S S S E E E S S E E E E E E   E
|---------3-3---------3-3-3----------|
|---------3-3-5-3-3---3-3-3----------|
|-5p3-----4-4-5-3-4---4-4-4-5b7-5b7--|
|-----5---5-5---------5-5-5----------|
|------------------------------------|
|-------3-----------3----------------|


  G               D7              G
  S S E E E S S E  Q   S S Q  E   Q.   +Q.   +Q.   +E  E E
|-------3-3----------------6--6-|-6----(6)---(6)---(6)-6-6--|
|-------3-3--------3-------6--6-|-6----(6)---(6)---(6)-6-6--|
|-5-3---4-4--------5---5S7------|---------------------------|
|-----5-5-5--------4------------|---------------------------|
|-----------3-4-5-(5)-----------|---------------------------|
|-------------------------------|---------------------------|


  C
  |-3-| |-3-|     |-3-|     |-3-| |--3--| |-3-|          |-3-|
  S S S S S S E   S S S E   S S S S   S S S S S T X T T. S S S T   T T T S. T
|---------------------------3-----------3-----5-3h5p3----3-----------3--------|
|-----------------3-3-3-6b8---6p3-----3---6p3---------6----6-3-----3---6-3----|
|-3-----3-----5b7-----------------5b7--------------------------5b7----------5-|
|---5p3---5p3-----------------------------------------------------------------|
|-----------------------------------------------------------------------------|
|-----------------------------------------------------------------------------|


  G
  |-3-|
  S S S E E S S  S   S  S S S S  S   S  S S S S S S S S
|---------3-------------3-3---------------------3-----3-|
|---------3-5-3-(3)-----3-3-5-3-(3)-----3-----3---3-6---|
|-5-3-----4-5-3--4--(4)-4-4-5-3--4--(4)-4-5-5-----------|
|-----5-5-5----------5--5-5----------5--5---------------|
|-------------------------------------------------------|
|-------------------------------------------------------|


                            ~
  S S S S S S S S S S E S S E S S S S +Q
|-3-----3-3-------6-7-8---6-------6-8-(8)b10--|
|---3-6-----3-6S8-------8---8-8-8-------------|
|---------------------------------------------|
|---------------------------------------------|
|---------------------------------------------|
|---------------------------------------------|


  C
         ~~~~~~~~~
  E    T S. +E  Q  S S S S Q      S  S E E
|-8b10-6---------------6-8-6b6.5--6\---3-3---|
|--------8--(8)-8--8-8-----------------3-3---|
|--------------------------------------3-3---|
|--------------------------------------5-5---|
|--------------------------------------------|
|--------------------------------------------|


                           |-3-|  |-3-|  |-3-| |-3-|       |-3-|   |-3-|
  +E  E   T T T T Q    S S S T S. S T S. S S S T T T T T T T T T T S T S.
|-(3)-------3---3------3---3------3------3-5-4-3h4p3---3h6-3h5p3---3-------|
|-(3)-----3---3---6b8----3---6p3----6p3--------------6-----------6---6p3---|
|-(3)-5b7------------------------------------------------------------------|
|-(5)----------------------------------------------------------------------|
|--------------------------------------------------------------------------|
|--------------------------------------------------------------------------|


  G
                                               |-3-|
  S S E   E   E   +S  S S S E E   T T T T Q    S S S
|-----------------------------------3---3------3-----|
|-6p3-----------------------------3---3---6b8----6-3-|
|-----5b7-5b7-5b7r(5)p3-------5b7--------------------|
|-----------------------5-3--------------------------|
|---------------------------5------------------------|
|----------------------------------------------------|


  |--3--| |-3-|         |-3-| |--3--| |-3-|   |-3-|
  S   S S S S S T T T T S S S S   S S S S S   S S S Q      Q    E
|-------3---3-5-3h5p3---3-----------3-------------------------------------|
|-----3---6-----------6---6-3-----3---6-3-----------3b3.5-----------------|
|-5b7-------------------------5b7---------5b7-5-3---3b3.5--5b7--5pb6.5r===|
|-------------------------------------------------5-----------------------|
|-------------------------------------------------------------------------|
|-------------------------------------------------------------------------|


  D7
                                         ~~
  +E  +S  S      +Q   Q     Q      E     Q.
|---------------------------------------------|
|---------------------------------------------|
|-(5)-(5)-5pb6.5r(5)--5pb6r=5b5.5--5b5.5-5----|
|---------------------------------------------|
|---------------------------------------------|
|---------------------------------------------|


  C
          |-3-|     |-3-| |-3-| |--3--|         |-3-| |-3-| |-3-|
  E E E   S S S E   S S S S S S S   S S T T T T S S S S S S S S S
|---------3---3-----3---------3-----3-5-3-5-3---3---------3-----------|
|-----------3---6b8---6p3---3---6b8-----------6---6p3---3---6-3-------|
|-5-5-5b6-----------------5---------------------------5---------5b7r==|
|---------------------------------------------------------------------|
|---------------------------------------------------------------------|
|---------------------------------------------------------------------|


  G                   C                 G               D7
   |-3--|
  +S  S S E E E S S E E E E E E   E     S S E E E S S E Q  E E Q
|---------3-3-3---------3-3-3---------|-------3-3-----------------||
|---------3-3-3-5-------3-3-3---------|-------3-3-------3--3-3----||
|-(5)p3---4-4-4-5-3S4---4-4-4-5b7-5b7-|-5-3---4-4-------5--5-5----||
|-------5-5-5-5---2S3-5-5-5-5---------|-----5-5-5-------4--4-4----||
|-------------------------------------|-----------3-4-5-5--5-5----||
|-------------------------------------|---------------------------||


 Outro Verse
  G                       C
                          ~~
  Q.   E. E. Q  E E E E   Q.   H    Q  Q.
|------------3--3---3---|-3-----------------|
|------------5--5---5---|-3-----------------|
|------------4--4---4---|-3-----------------|
|------------5--5---5---|-2-----------------|
|-----------------------|-3-----------------|
|---------3-------------|-------------------|


  G
           ~~~~~~~
  |--3--|
  S   S S  Q  +Q   S S S S E S S S S S   S E
|-------3------------------------------------|
|---------/8--(8)--6---6-8-8-6---6-----------|
|-5b7-3--------------7---------7---7-5b7r5-3-|
|--------------------------------------------|
|--------------------------------------------|
|--------------------------------------------|


  S S E E E S S  E   E  E E e Q
|-------3-3-------------3-3-3----|
|-------3-3-5-3-(3)-----3-3-3----|
|-5-3---4-4-5-3h=4--(4)-4-4-4----|
|-------5-5----------5--5-5-5----|
|--------------------------------|
|-----3--------------------------|


  C
                          ~~
  Q.   Q  E Q  E E. S E   Q.   H    Q  Q  E
|-----------5--3-5------|-3--------------------|
|-----------5--3-5--3---|-3--------------------|
|-----------5--5-5--3---|-3---------------5b7--|
|---------------------5-|-2--------------------|
|-----------------------|-3--------------------|
|---------3-------------|----------------------|


  G
                 ~~~~~~~~~~
  +Q   +E  S S S S +E  +Q   S S S S E   E     S S E E E S S  E   E  E E e Q
|----------3--------------------------------|-------3-3-------------3-3-3----|
|------------3-6S8-(8)-(8)--6---6-----------|-------3-3-5-3-(3)-----3-3-3----|
|-(5)--(5)--------------------7---7-5b7-5b7-|-5-3---4-4-5-3h=4--(4)-4-4-4----|
|-------------------------------------------|-----5-5-5-5-3-(3)--5--5-5-5----|
|-------------------------------------------|--------------------------------|
|-------------------------------------------|--------------------------------|


  D7                   C
  H    Q  Q.   E E E   e Q  H    Q  Q.
|--------------5-5-4-|-3-----------------|
|--------------5-5-4-|-3-----------------|
|--------------5-5-4-|-3-----------------|
|--------------------|-------------------|
|--------------------|-------------------|
|--------------------|-------------------|


  N.C.
  Q  E   Q    E   E E  E     Q      E
|----6---6----6---3---10----10-----10-----|
|----5b6-5b6--5b6-4---11b12-11b12--11b12--|
|----6b7-6b7--6b7-5-----------------------|
|-----------------------------------------|
|-------------------0---------------------|
|-----------------------------------------|


          G#9   G9 N.C.
                       |--3--|              |--3--|
  E  E  E  Q.    E  E  T  T  T  T  T  S  S  S  S  S  S S
|---------11----10-12-10h12p10----10---------------------|
|---------11----10-------------12----12-10-12-10---------|
|---------11----10-------------------------------12-12S5-|
|-9----12-10-----9---------------------------------------|
|---10----11---------------------------------------------|
|--------------------------------------------------------|


                     G7sus2/F
                                            TP   TP    TP    TP    TP
  |-3--| |-3-| |-3-|
  T S. S S S S S S S  Q   E  E  E  E  E  E  E   +Q.   +Q.   +Q.   +E  e E
|--------------------!3--^3-!3-^3-!3-!3-^3-!3-|-(3)---(3)---(3)---(3)-3---*|
|--------------------!3--^3-!3-^3-!3-!3-^3-!3-|-(3)---(3)---(3)---(3)-3---*|
|---5--3-------------!2--^2-!2-^2-!2-!2-^2-!2-|-(2)---(2)---(2)---(2)-2---*|
|-5------5-3---------!3--^3-!3-^3-!3-!3-^3-!3-|-(3)---(3)---(3)---(3)-3---*|
|------------5-4-3-2--------------------------|---------------------------*|
|---------------------------------------------|---------------------------*|



Duration Legend
---------------
W - whole; H - half; Q - quarter; E - 8th; S - 16th; T - 32nd; X - 64th; a - acciaccatura
+ - note tied to previous; . - note dotted; .. - note double dotted
Uncapitalized letters represent notes that are staccato (1/2 duration)
Irregular groupings are notated above the duration line
Duration letters will always appear directly above the note/fret number it represents the
duration for.  Duration letters with no fret number below them represent rests.  Multi-
bar rests are notated in the form Wxn, where n is the number of bars to rest for.  Low
melody durations appear below the staff

Tablature Legend
----------------
 h   - hammer-on
 p   - pull-off
 b   - bend
 pb  - pre-bend
 r   - bend release (if no number after the r, then release immediately)
 /\  - slide into or out of (from/to "nowhere")
 s   - legato slide
 S   - shift slide
 - natural harmonic
[n]  - artificial harmonic
n(n) - tapped harmonic
 ~   - vibrato
 tr  - trill
 T   - tap
 TP  - trem. picking
 PM  - palm muting
\n/  - tremolo bar dip; n = amount to dip
 \n  - tremolo bar down
 n/  - tremolo bar up
/n\  - tremolo bar inverted dip
 =   - hold bend; also acts as connecting device for hammers/pulls
 <> - volume swell (louder/softer)
 x   - on rhythm slash represents muted slash
 o   - on rhythm slash represents single note slash

Misc Legend
-----------
 |  - bar
||  - double bar
||o - repeat start
o|| - repeat end
*|  - double bar (ending)
 :  - bar (freetime)
 $  - Segno
 &  - Coda
Tempo markers -  = BPM(8/16=s8/s16), where s8 = swing 8ths, s16 = swing 16ths

comments
We did not receive enough feedback on this tab! Please rate:
1 2 3 4 5
I want to post or [tab]
guest
You may want to rate the tab now too:
select rating
Please do not post tabs as comments. Select "correction" instead!