Oops, an error
Loading. Please wait.

The Last Ship Tab

ver1
ver1

Whole song

More versions @911Tabs.com
9,279 views 189 this week
1 commentread comment
1 2 3 4 5
excellent!
x 9
Autoscroll
+/-
esc
set tempo
stop
Contributor
Difficulty
Tabbers playing skills
intermediate
advanced ++
WARNING: You are trying to view
                                    content from Ultimate-Guitar.com
                                    in an unauthorized application,
                                    which is prohibited.

                                    Please use an official Ultimate
                                    Guitar Tabs application for iPhone,
                                    iPad or Android to access legitimate
                                    chords, guitar, bass, and drum tabs
                                    from Ultimate-Guitar.com database.

                                    Type "ultimate guitar tabs" in Apple
                                    App Store's or Android Market's
                                    search to find the application.
The Last Ship by Sting from The Last Ship album
For any questions mail me to fffoma@gmail.com


Key: E Minor, afterwards modulate to F Minor and then to F# Minor
Time: 3/4


E||-------0----0----|-------0----0----|-------0----0----|-------0----0----|
B||-------0----0----|-------0----0----|-------0----0----|-------0----0----|
G||-----------------|-----------------|-----------------|-----------------|
D||--2--------------|--2--------------|--2--------------|--2--------------|
A||-----------------|-----------------|-----------------|-----------------|
E||-----------------|-----------------|-----------------|-----------------|

                                                            
-------0----0----|-------0----0----|-------0----0----|-------0----0----|
-------0----0----|-------0----0----|-------0----0----|-------0----0----|
-----------------|-----------------|-----------------|-----------------|
--2--------------|--2--------------|--2--------------|--2--------------|
-----------------|-----------------|-----------------|-----------------|
-----------------|-----------------|-----------------|-----------------|

                                                            
-------0----0----|-----------------|-----------------|-----------------|
-------0----0----|-------3----3----|-------1----1----|-------3----3----|
-----------------|-------2----2----|-------0----0----|-------2----2----|
--2--------------|-----------------|-----------------|-----------------|
-----------------|--2--------------|--0--------------|--2--------------|
-----------------|-----------------|-----------------|-----------------|

                                                            
-----------------|-----------------|-------0----0----|-------2----2----|
-------1----1----|-------3----3----|-------1----1----|-------3----3----|
-------0----0----|-------2----2----|-------0----0----|-------2----2----|
-----------------|-----------------|-----------------|--0--------------|
--0--------------|--2--------------|--3--------------|-----------------|
-----------------|-----------------|-----------------|-----------------|

                                                           
-------0----0----|-----------------|-----------------|-----------------|
-------0----0----|-------3----3----|-------1----1----|-------3----3----|
-----------------|-------2----2----|-------0----0----|-------2----2----|
--2--------------|-----------------|-----------------|-----------------|
-----------------|--2--------------|--0--------------|--2--------------|
-----------------|-----------------|-----------------|-----------------|

                                                            
-----------------|-----------------|-------0----0----|-------2----2----|
-------1----1----|-------3----3----|-------1----1----|-------3----3----|
-------0----0----|-------2----2----|-------0----0----|-------2----2----|
-----------------|-----------------|-----------------|--0--------------|
--0--------------|--2--------------|--3--------------|-----------------|
-----------------|-----------------|-----------------|-----------------|

                                                            
-----------------|-----------------|-----------------|-----------------|
-------5----5----|-------5----5----|-------5----5----|-------5----5----|
-------2----2----|-------2----2----|-------2----2----|-------2----2----|
-----------------|-----------------|-----------------|-----------------|
--3--------------|--3--------------|--3--------------|--3--------------|
-----------------|-----------------|-----------------|-----------------|

                                                            
-----------------|-----------------|-----------------|-----------------|
-------7----7----|-------7----7----|-------7----7----|-------7----7----|
-----------------|-----------------|-----------------|-----------------|
-------7----7----|-------7----7----|-------7----7----|-------7----7----|
--5--------------|--5--------------|--6--------------|--6--------------|
-----------------|-----------------|-----------------|-----------------|

                                                            
-----------------|-----------------|-----------------|-----------------|
-------8----8----|-------8----8----|-------8----8----|-------8----8----|
-------4----4----|-------4----4----|-------5----5----|-------5----5----|
-----------------|-----------------|-----------------|-----------------|
--7--------------|--7--------------|--7--------------|--7--------------|
-----------------|-----------------|-----------------|-----------------|

                                                                   
-------------------|-------------------|-------------------|-----------------|
-------10----10----|-------10----10----|-------10----10----|-------10--------|
--------7-----7----|--------7-----7----|--------8-----8----|--------8--------|
-------------------|-------------------|-------------------|-----------------|
--9----------------|--9----------------|--9----------------|--9--------------|
-------------------|-------------------|-------------------|-----------------|

                                                            
-----------------|-----------------|-----------------|-----------------|
-------1----1----|-------1----1----|-------7----7----|-------7----7----|
-------0----0----|-------0----0----|-----------------|-----------------|
-----------------|-----------------|-------7----7----|-------7----7----|
--0--------------|--0--------------|--5--------------|--5--------------|
-----------------|-----------------|-----------------|-----------------|

                                                            
-----------------|-----------------|-----------------|----------------|
-------7----7----|-------7----7----|-------8----8----|-------8--------|
-----------------|-----------------|-------4----4----|-------4--------|
-------7----7----|-------7----7----|-----------------|----------------|
--6--------------|--6--------------|--7--------------|--7-------------|
-----------------|-----------------|-----------------|----------------|

                                                            
-----------------|-----------------|-----------------|-----------------|
-------1----1----|-------1----1----|-------7----7----|-------7----7----|
-------0----0----|-------0----0----|-----------------|-----------------|
-----------------|-----------------|-------7----7----|-------7----7----|
--0--------------|--0--------------|--5--------------|--5--------------|
-----------------|-----------------|-----------------|-----------------|

                                                            
-----------------|-----------------|-----------------|-----------------|
-------7----7----|-------7----7----|-------8----8----|-------8----7----|
-----------------|-----------------|-------4----4----|-------4---------|
-------7----7----|-------7----7----|-----------------|------------7----|
--6--------------|--6--------------|--7--------------|--7--------------|
-----------------|-----------------|-----------------|-----------------|

                                                            
-----------------|-----------------|-----------------|-----------------|
-------5----5----|-------5----5----|-------5----5----|-------5----5----|
-------2----2----|-------2----2----|-------2----2----|-------2----2----|
-----------------|-----------------|-----------------|-----------------|
--3--------------|--3--------------|--4--------------|--4--------------|
-----------------|-----------------|-----------------|-----------------|

                                                            
-----------------|-----------------|-----------------|-----------------|
-------7----7----|-------7----7----|-------7----7----|-------7----7----|
-----------------|-----------------|-----------------|-----------------|
-------7----7----|-------7----7----|-------7----7----|-------7----7----|
--5--------------|--5--------------|--6--------------|--6--------------|
-----------------|-----------------|-----------------|-----------------|

                                                            
-----------------|-----------------|-----------------|-----------------|
-------8----8----|-------8----8----|-------8----8----|-------8----8----|
-------4----4----|-------4----4----|-------5----5----|-------5----5----|
-----------------|-----------------|-----------------|-----------------|
--7--------------|--7--------------|--7--------------|--7--------------|
-----------------|-----------------|-----------------|-----------------|

                                                                   
-------------------|-------------------|-------------------|-----------------|
-------10----10----|-------10----10----|-------10----10----|-------10--------|
--------7-----7----|--------7-----7----|--------8-----8----|--------8--------|
-------------------|-------------------|-------------------|-----------------|
--9----------------|--9----------------|--9----------------|--9--------------|
-------------------|-------------------|-------------------|-----------------|

                                                            
-----------------|-----------------|-----------------|-------2----2----|
-------5----5----|-------5----5----|-------1----1----|-------3----3----|
-------2----2----|-------2----2----|-------0----0----|-------2----2----|
-----------------|-----------------|-----------------|--0--------------|
--3--------------|--3--------------|--0--------------|-----------------|
-----------------|-----------------|-----------------|-----------------|

                                                            
-------0----0----|-------0----0----|-------0----0----|-------0----0----|
-------0----0----|-------3----3----|-------0----0----|-------0----0----|
-------0----0----|-------2----2----|-----------------|-----------------|
-----------------|-----------------|--2--------------|--0--------------|
--3--------------|--2--------------|-----------------|-----------------|
-----------------|-----------------|-----------------|-----------------|

                                                            
-----------------|-----------------|-----------------|-------2----2----|
-------5----5----|-------5----5----|-------1----1----|-------3----3----|
-------2----2----|-------2----2----|-------0----0----|-------2----2----|
-----------------|-----------------|-----------------|--0--------------|
--3--------------|--3--------------|--0--------------|-----------------|
-----------------|-----------------|-----------------|-----------------|

                                                            
-----------------|-----------------|-------0----0----|-------2----2----|
-------1----1----|-------3----3----|-------1----1----|-------3----3----|
-------0----0----|-------2----2----|-------0----0----|-------2----2----|
-----------------|-----------------|-----------------|--0--------------|
--0--------------|--2--------------|--3--------------|-----------------|
-----------------|-----------------|-----------------|-----------------|

                                                            
-----------------|-----------------|-----------------|-------2----2----|
-------5----5----|-------5----5----|-------1----1----|-------3----3----|
-------2----2----|-------2----2----|-------0----0----|-------2----2----|
-----------------|-----------------|-----------------|--0--------------|
--3--------------|--3--------------|--0--------------|-----------------|
-----------------|-----------------|-----------------|-----------------|

                                                            
-------0----0----|-------0----0----|-----------------|-----------------|
-------0----0----|-------3----3----|-------5----5----|-------5----5----|
-------0----0----|-------2----2----|-------4----4----|-------2----2----|
-----------------|-----------------|--2--------------|--2--------------|
--3--------------|--2--------------|-----------------|-----------------|
-----------------|-----------------|-----------------|-----------------|

                                                            
-----------------|-----------------|-----------------|-----------------|
-------5----5----|-------5----5----|-------5----5----|-------5----5----|
-------4----4----|-------2----2----|-------2----2----|-------2----2----|
--2--------------|--2--------------|-----------------|-----------------|
-----------------|-----------------|--3--------------|--3--------------|
-----------------|-----------------|-----------------|-----------------|

                                                            
-----------------|-----------------|-----------------|-----------------|
-------5----5----|-------5----5----|-------6----6----|-------6----6----|
-------2----2----|-------2----2----|-------3----3----|-------3----3----|
-----------------|-----------------|-----------------|-----------------|
--4--------------|--4--------------|--5--------------|--5--------------|
-----------------|-----------------|-----------------|-----------------|

                                                            
-----------------|----------------|-------1----1----|-----------------|
-------6----6----|-------6--------|-------1----1----|-------4----4----|
-------3----3----|-------3--------|-----------------|-------3----3----|
-----------------|----------------|--3--------------|-----------------|
--4--------------|--3-------------|-----------------|--3--------------|
-----------------|----------------|-----------------|-----------------|

                                                            
-----------------|-----------------|-----------------|-----------------|
-------2----2----|-------4----4----|-------2----2----|-------4----4----|
-------1----1----|-------3----3----|-------1----1----|-------3----3----|
-----------------|-----------------|-----------------|-----------------|
--1--------------|--3--------------|--1--------------|--3--------------|
-----------------|-----------------|-----------------|-----------------|

                                                            
-----------------|-----------------|-------1----1----|-----------------|
-------6----6----|-------6----6----|-------1----1----|-------4----4----|
-------3----3----|-------3----3----|-----------------|-------3----3----|
-----------------|-----------------|--3--------------|-----------------|
--4--------------|--6--------------|-----------------|--3--------------|
-----------------|-----------------|-----------------|-----------------|

                                                            
-----------------|-----------------|-----------------|-----------------|
-------2----2----|-------4----4----|-------6----6----|-------4----4----|
-------1----1----|-------3----3----|-------5----5----|-------3----3----|
-----------------|-----------------|-----------------|-----------------|
--1--------------|--3--------------|--4--------------|--3--------------|
-----------------|-----------------|-----------------|-----------------|

                                                            
-------1----1----|-------1----1----|-----------------|-----------------|
-------1----1----|-------1----1----|-------6----6----|-------6----6----|
-----------------|-----------------|-------3----3----|-------3----3----|
--3--------------|--1--------------|-----------------|-----------------|
-----------------|-----------------|--4--------------|--4--------------|
-----------------|-----------------|-----------------|-----------------|

                                                            
-----------------|-----------------|-----------------|-----------------|
-------6----6----|-------6----6----|-------7----7----|-------7----7----|
-------3----3----|-------3----3----|-------4----4----|-------4----4----|
-----------------|-----------------|-----------------|-----------------|
--5--------------|--5--------------|--6--------------|--6--------------|
-----------------|-----------------|-----------------|-----------------|

                                                            
-----------------|----------------|-------2----2----|-----------------|
-------7----7----|-------7--------|-------2----2----|-------5----5----|
-------4----4----|-------4--------|-----------------|-------4----4----|
-----------------|----------------|--4--------------|-----------------|
--5--------------|--4-------------|-----------------|--4--------------|
-----------------|----------------|-----------------|-----------------|

                                                            
-----------------|-----------------|-----------------|-----------------|
-------3----3----|-------5----5----|-------3----3----|-------5----5----|
-------2----2----|-------4----4----|-------2----2----|-------4----4----|
-----------------|-----------------|-----------------|-----------------|
--2--------------|--4--------------|--2--------------|--4--------------|
-----------------|-----------------|-----------------|-----------------|

                                                            
-----------------|----------------|-------2----2----|-----------------|
-------7----7----|-------7--------|-------2----2----|-------5----5----|
-------4----4----|-------4--------|-----------------|-------4----4----|
-----------------|----------------|--4--------------|-----------------|
--5--------------|--7-------------|-----------------|--4--------------|
-----------------|----------------|-----------------|-----------------|

                                                            
-----------------|-----------------|-----------------|-----------------|
-------3----3----|-------5----5----|-------7----7----|-------5----5----|
-------2----2----|-------4----4----|-------6----6----|-------4----4----|
-----------------|-----------------|-----------------|-----------------|
--2--------------|--4--------------|--5--------------|--4--------------|
-----------------|-----------------|-----------------|-----------------|

                                                            
-------2----2----|-------2----2----|-----------------|-----------------|
-------2----2----|-------2----2----|-------7----7----|-------7----7----|
-----------------|-----------------|-------4----4----|-------4----4----|
--4--------------|--2--------------|-----------------|-----------------|
-----------------|-----------------|--5--------------|--5--------------|
-----------------|-----------------|-----------------|-----------------|

                                                            
-----------------|-----------------|-----------------|-----------------|
-------3----3----|-------5----5----|-------3----3----|-------5----5----|
-------2----2----|-------4----4----|-------2----2----|-------4----4----|
-----------------|-----------------|-----------------|-----------------|
--2--------------|-----------------|--2--------------|--4--------------|
-----------------|--0--------------|-----------------|-----------------|

                                                            
-----------------|-----------------|-----------------|-----------------|
-------7----7----|-------7----7----|-------7----7----|-------7----7----|
-------4----4----|-------4----4----|-------4----4----|-------4----4----|
-----------------|-----------------|-----------------|-----------------|
--5--------------|--7--------------|--5--------------|--5--------------|
-----------------|-----------------|-----------------|-----------------|

                                                            
-----------------|-----------------|-------2----2----|-----------------|
-------3----3----|-------5----5----|-------2----2----|-------5----5----|
-------2----2----|-------4----4----|-------2----2----|-------4----4----|
-----------------|-----------------|--0--------------|-----------------|
--2--------------|-----------------|-----------------|--4--------------|
-----------------|--0--------------|-----------------|-----------------|

                                                            
-------2----2----|-------2----2----|-----------------|-----------------|
-------2----2----|-------2----2----|-------7----7----|-------7----7----|
-----------------|-----------------|-------4----4----|-------4----4----|
--4--------------|--2--------------|-----------------|-----------------|
-----------------|-----------------|--5--------------|--5--------------|
-----------------|-----------------|-----------------|-----------------|

                                                            
-----------------|-----------------|-----------------|-----------------|
-------3----3----|-------5----5----|-------3----3----|-------5----5----|
-------2----2----|-------4----4----|-------2----2----|-------4----4----|
-----------------|-----------------|-----------------|-----------------|
--2--------------|-----------------|--2--------------|--4--------------|
-----------------|--0--------------|-----------------|-----------------|

                                                            
-----------------|----------------|-----------------|-----------------|
-------7----7----|-------7--------|-------7----7----|-------7----7----|
-------4----4----|-------4--------|-------6----6----|-------4----4----|
-----------------|----------------|-----------------|-----------------|
--5--------------|--7-------------|--5--------------|--5--------------|
-----------------|----------------|-----------------|-----------------|

                                                            
-----------------|-----------------|-----------------|-----------------|
-------3----3----|-------7----7----|-------7----7----|-------5----5----|
-------2----2----|-------4----4----|-------4----4----|-------4----4----|
-----------------|-----------------|-----------------|-----------------|
--2--------------|-----------------|--5--------------|--4--------------|
-----------------|--0--------------|-----------------|-----------------|

                                                            
-----------------|-----------------|-----------------|-----------------|
-------3----3----|-------5----5----|-------3----3----|-------3----3----|
-------2----2----|-------4----4----|-------2----2----|-------2----2----|
-----------------|-----------------|-----------------|-----------------|
--2--------------|--4--------------|--2--------------|--0--------------|
-----------------|-----------------|-----------------|-----------------|

                                .              .            
-----------------|-----------------|--2------------|--2------------|
-------5----5----|-------5----5----|--2------------|--5------------|
-------4----4----|-------4----4----|--2------------|--4------------|
-----------------|-----------------|--0------------|---------------|
-----------------|-----------------|---------------|--4------------|
--4--------------|--0--------------|---------------|---------------|

                                                            
-------2----2----|-------2----2----|-------2----2----|-------2----2----|
-------2----2----|-------2----2----|-------2----2----|-------2----2----|
-------3----3----|-------4----4----|-------3----3----|-------4----4----|
--4--------------|--4--------------|--4--------------|--4--------------|
-----------------|-----------------|-----------------|-----------------|
-----------------|-----------------|-----------------|-----------------|

                                                            
-------2----2----|-------2----2----|-------2----2----|-------2----2----|
-------2----2----|-------2----2----|-------2----2----|-------2----2----|
-------3----3----|-------4----4----|-------3----3----|-------4----4----|
--4--------------|--4--------------|--4--------------|--4--------------|
-----------------|-----------------|-----------------|-----------------|
-----------------|-----------------|-----------------|-----------------|

                                                            
-------2----2----|-------2----2----|-------2----2----|-------2----2----|
-------2----2----|-------2----2----|-------2----2----|-------2----2----|
-------3----3----|-------4----4----|-------2----2----|-------2----2----|
--4--------------|--4--------------|--4--------------|--4--------------|
-----------------|-----------------|-----------------|-----------------|
-----------------|-----------------|-----------------|-----------------|
comments
print report bad tab
1 comment total.
+1 reply
troupedesloups wrote on May 30 2014, 05:10 pm

This tab is amazing but could you please write lyrics between lines as reference? It's so easy to get lost along the way because of how repetitive the lines can look. Thanks and thanks! Amazing job!

I want to post or [tab]
guest
You may want to rate the tab now too:
select rating
Please do not post tabs as comments. Select "correction" instead!