Oops, an error
Loading. Please wait.

No Commands Tab

3,206 views 6 this week
no commentswrite comment
1 2 3 4 5
excellent!
x 4
Autoscroll
+/-
esc
set tempo
stop
Difficulty
intermediate
WARNING: You are trying to view
                                    content from Ultimate-Guitar.com
                                    in an unauthorized application,
                                    which is prohibited.

                                    Please use an official Ultimate
                                    Guitar Tabs application for iPhone,
                                    iPad or Android to access legitimate
                                    chords, guitar, bass, and drum tabs
                                    from Ultimate-Guitar.com database.

                                    Type "ultimate guitar tabs" in Apple
                                    App Store's or Android Market's
                                    search to find the application.
STONE : No Commands
(Janne Joutsenniemi - Roope Latvala)

Tabbed by: Kyösti Arrimo
comment & complains to: inferoth@wippies.com
<a href="http://profile.myspace.com/index.cfm?fuseaction=user.viewprofile&friendID=87457399">
<H3>STONE's official myspace</h3></a>
an buy their records :<a href="http://www.levykauppax.fi/artist/Stone/">Levykauppa ÄX</a>
<a href="http://profile.myspace.com/index.cfm?fuseaction=user.viewprofile&friendid=297830630">
Listen this too: Airdash</a>

Intro (0:00)

 guitar1 (fade-in with volume)
|-------------------------------|-------------------------------|
|-------------------------------|-------------------------------|
|-9-----------------------------|-10----------------------------|
|-7-----------------------------|-8-----------------------------|
|-------------------------------|-------------------------------|
|-------------------------------|-------------------------------|
|                                                               |
|guitar2 (palm mute)                                            |
|-------------------------------|-------------------------------|
|-------------------------------|-------------------------------|
|-------------------------------|-------------------------------|
|-------------------------------|-------------------------------|
|-0--0-0-0-0-0-0-0--0-0-0-0-0-0-|-0--0-0-0-0-0-0-0--0-0-0-0-0-0-|
|-------------------------------|-------------------------------|


|-------------------------------|-------------------------------|
|-------------------------------|-------------------------------|
|-7-----------------------------|-6-----------------------------|
|-5-----------------------------|-4-----------------------------|
|-------------------------------|-------------------------------|
|-------------------------------|-------------------------------|
|                                                               |
|                                                               |
|-------------------------------|-------------------------------|
|-------------------------------|-------------------------------|
|-------------------------------|-------------------------------|
|-------------------------------|-------------------------------|
|-0--0-0-0-0-0-0-0--0-0-0-0-0-0-|-0--0-0-0-0-0-0-0--0-0-0-0-0-0-|
|-------------------------------|-------------------------------|


|-------------------------------|-------------------------------|
|-------------------------------|-------------------------------|
|-9-----------------------------|-10----------------------------|
|-7-----------------------------|-8-----------------------------|
|-------------------------------|-------------------------------|
|-------------------------------|-------------------------------|
|                                                               |
|                                                               |
|-------------------------------|-------------------------------|
|-------------------------------|-------------------------------|
|-------------------------------|-------------------------------|
|-------------------------------|-------------------------------|
|-5--5-5-5-5-5-5-5--5-5-5-5-5-5-|-5--5-5-5-5-5-5-5--5-5-5-5-5-5-|
|-------------------------------|-------------------------------|


|-------------------------------|-------------------------------|
|-------------------------------|-------------------------------|
|-7-----------------------------|-6-----------------------------|
|-5-----------------------------|-4-----------------------------|
|-------------------------------|-------------------------------|
|-------------------------------|-------------------------------|
|                                                               |
|                                                               |
|-------------------------------|-------------------------------|
|-------------------------------|-------------------------------|
|-------------------------------|-------------------------------|
|-------------------------------|-------------------------------|
|-5--5-5-5-5-5-5-5--5-5-5-5-5-5-|-5--5-5-5-5-5-5-5--5-5-5-5-5-5-|
|-------------------------------|-------------------------------|


|-------------------------------|-------------------------------|
|-------------------------------|-------------------------------|
|-9-----------------------------|-10----------------------------|
|-7-----------------------------|-8-----------------------------|
|-------------------------------|-------------------------------|
|-------------------------------|-------------------------------|
|                                                               |
|                                                               |
|-------------------------------|-------------------------------|
|-------------------------------|-------------------------------|
|-------------------------------|-------------------------------|
|-------------------------------|-------------------------------|
|-------------------------------|-------------------------------|
|-0--0-0-0-0-0-0-0--0-0-0-0-0-0-|-0--0-0-0-0-0-0-0--0-0-0-0-0-0-|


|-------------------------------|-------------------------------|
|-------------------------------|-------------------------------|
|-7-----------------------------|-6-----------------------------|
|-5-----------------------------|-4-----------------------------|
|-------------------------------|-------------------------------|
|-------------------------------|-------------------------------|
|                                                               |
|                                                               |
|-------------------------------|-------------------------------|
|-------------------------------|-------------------------------|
|-------------------------------|-------------------------------|
|-------------------------------|-------------------------------|
|-------------------------------|-------------------------------|
|-0--0-0-0-0-0-0-0--0-0-0-0-0-0-|-0--0-0-0-0-0-0-0--0--3--4/----|


|-------------------------------|-------------------------------|
|-------------------------------|-------------------------------|
|-9-----------------------------|-10----------------------------|
|-7-----------------------------|-8-----------------------------|
|-------------------------------|-------------------------------|
|-------------------------------|-------------------------------|
|                                                               |
|                                                               |
|-------------------------------|-------------------------------|
|-------------------------------|-------------------------------|
|-------------------------------|-------------------------------|
|-------------------------------|-------------------------------|
|-0--0-0-0-0-0-0-0--0-0-0-0-0-0-|-0--0-0-0-0-0-0-0--0-0-0-0-0-0-|
|-------------------------------|-------------------------------|


|-------------------------------|-------------------------------|
|-------------------------------|-------------------------------|
|-7-----------------------------|-6-----------------------------|
|-5-----------------------------|-4-----------------------------|
|-------------------------------|-------------------------------|
|-------------------------------|-------------------------------|
|                                                               |
|                                                               |
|-------------------------------|-------------------------------|
|-------------------------------|-------------------------------|
|-------------------------------|-------------------------------|
|-------------------------------|-------------------------------|
|-0--0-0-0-0-0-0-0--0-0-0-0-0-0-|-0--0-0-0-0-0-0-0--0-0-0-0-0-0-|
|-------------------------------|-------------------------------|




(0:27)

|----------------------------------|---------------------------------|
|----------------------------------|---------------------------------|
|---2---3---4---5--2---3---4---5---|-2---3---4---5--2---3---4---5----|
|---2---3---4---5--2---3---4---5---|-2---3---4---5--2---3---4---5----|
|----------------------------------|---------------------------------|
|----------------------------------|---------------------------------|
|                                                                    |
|----------------------------------|---------------------------------|
|----------------------------------|---------------------------------|
|---2---3---4---5--2---3---4---5---|-2---3---4---5--2---3---4---5----|
|---2---3---4---5--2---3---4---5---|-2---3---4---5--2---3---4---5----|
|----------------------------------|---------------------------------|
|----------------------------------|---------------------------------|



|----------------------------------|---------------------------------|
|------------------8---8---8---8---|----------------4---4---4---4----|
|---2---3---4---5--5---5---5---5---|-2---3---4---5--5---5---5---5----|
|---2---3---4---5------------------|-2---3---4---5-------------------|
|----------------------------------|---------------------------------|
|----------------------------------|---------------------------------|
|                                                                    |
|----------------------------------|---------------------------------|
|----------------------------------|---------------------------------|
|---2---3---4---5--2---3---4---5---|-2---3---4---5--2---3---4---5----|
|---2---3---4---5--2---3---4---5---|-2---3---4---5--2---3---4---5----|
|----------------------------------|---------------------------------|
|----------------------------------|---------------------------------|




(0:38)

|-----------------|-----------------|-----------------|-----------------|
|-----------------|-----------------|-----------------|-----------------|
|-7---------------|-9---------------|-11--------------|-----------------|
|-5---------------|-7---------------|-9---------------|-----------------|
|-----------------|-----------------|-----------------|-----------------|
|-----------------|-----------------|-----------------|-----------------|
|                                                                       |
|-----------------|-----------------|-----------------|-----------------|
|-----------------|-----------------|-----------------|-----------------|
|-7---------------|-6---------------|-4---------------|-----------------|
|-5---------------|-4---------------|-2---------------|-----------------|
|-----------------|-----------------|-----------------|-----------------|
|-----------------|-----------------|-----------------|-----------------|


|-----------------|-----------------|-----------------|---------------------|
|-----------------|-----------------|-----------------|---------------------|
|-7---------------|-9---------------|-----------------|---------------4-----|
|-5---------------|-7---------------|-----------------|---------------4-----|
|-----------------|-----------------|-----------------|---------------2---2-|
|-----------------|-----------------|-0-0-0-0-0-0-0-0-|-0-0-0-0-0-0-0-------|
|                                                                           |
|-----------------|-----------------|-----------------|---------------------|
|-----------------|-----------------|-----------------|---------------------|
|-7---------------|-6---------------|-----------------|---------------4-----|
|-5---------------|-4---------------|-----------------|---------------4-----|
|-----------------|-----------------|-----------------|---------------2-----|
|-----------------|-----------------|-0-0-0-0-0-0-0-0-|-0-0-0-0-0-0-0-------|




(0:51)

|---------------------------------|---------------------------------|
|---------------------------------|---------------------------------|
|-4-----4-----4---4p2---2-5-4-----|-4-----4-----4---4p2---2-5-4-----|
|-4-----4-----4-------4-----4-----|-4-----4-----4-------4-----4-----|
|---2-2---2-2---2---------------2-|---2-2---2-2---2---------------2-|
|---------------------------------|---------------------------------|
|                                                                   |
|---------------------------------|---------------------------------|
|---------------------------------|---------------------------------|
|---------------------------------|---------------------------------|
|---------------------------------|---------------------------------|
|---------------------------------|---------------------------------|
|---------------------------------|---------------------------------|


|---------------------------------|---------------------------------|
|---------------------------------|---------------------------------|
|-4-----4-----4---4p2---2-5-4-----|-4-----4-----4---4p2---2-5-4-----|
|-4-----4-----4-------4-----4-----|-4-----4-----4-------4-----4-----|
|---2-2---2-2---2---------------2-|---2-2---2-2---2---------------2-|
|---------------------------------|---------------------------------|
|                                                                   |
|---------------------------------|---------------------------------|
|---------------------------------|---------------------------------|
|-4-------------------------------|-4-------------------------4-----|
|-4-------------------------------|-4-------------------------4-----|
|-2-------------------------------|-2-----2-2-2-2-2-2-2-2-2-2-2---2-|
|---------------------------------|---------------------------------|




|---------------------------------|---------------------------------|
|---------------------------------|---------------------------------|
|-4-----4-----4---4p2---2-5-4-----|-4-----4-----4---4p2---2-5-4-----|
|-4-----4-----4-------4-----4-----|-4-----4-----4-------4-----4-----|
|---2-2---2-2---2---------------2-|---2-2---2-2---2---------------2-|
|---------------------------------|---------------------------------|
|                                 |                                 |
|---------------------------------|---------------------------------|
|---------------------------------|---------------------------------|
|---------------------------------|---------------------------------|
|-4-----4-----4-------------4-----|-4-----4-----4-------------4-----|
|-2-2-2-2-2-2-2-2-2p0---0-3-2---2-|-2-2-2-2-2-2-2-2-2p0---0-3-2---2-|
|---------------------2-----------|---------------------2-----------|



                                                           Looking...
|---------------------------------|---------------------------------|
|---------------------------------|---------------------------------|
|-4-----4-----4---4p2---2-5-4-----|-4-----4-------------------------|
|-4-----4-----4-------4-----4-----|-4-----4-----0-------------------|
|---2-2---2-2---2---------------2-|---2-2---2-2-----------------2-2-|
|---------------------------------|---------------------------------|
|                                 |                                 |
|---------------------------------|---------------------------------|
|---------------------------------|---------------------------------|
|---------------------------------|---------------------------------|
|-4-----4-----4-------------4-----|-4-----4-----4-------------------|
|-2-2-2-2-2-2-2-2-2p0---0-3-2---2-|-2-2-2-2-2-2-2---------------2-2-|
|---------------------2-----------|---------------------------------|




(1:12)
Verse
Riff 1

 ...at myself in the mirror.              is it me...
|---------------------------------|---------------------------------|
|---------------------------------|---------------------------------|
|-4-----4-----4---4p2---2-5-4-----|-4-----4-----4---4p2---2-5-4-----|
|-4-----4-----4-------4-----4-----|-4-----4-----4-------4-----4-----|
|---2-2---2-2---2---------------2-|---2-2---2-2---2---------------2-|
|---------------------------------|---------------------------------|
|                                 |                                 |
|---------------------------------|---------------------------------|
|---------------------------------|---------------------------------|
|---------------------------------|---------------------------------|
|-4-----4-----4-------------4-----|-4-----4-----4-------------4-----|
|-2-2-2-2-2-2-2-2-2p0---0-3-2---2-|-2-2-2-2-2-2-2-2-2p0---0-3-2---2-|
|---------------------2-----------|---------------------2-----------|


|---------------------------------|---------------------------------|
|---------------------------------|---------------------------------|
|-4-----4-----4---4p2---2-5-4-----|-4-----4-----4---4p2---2-5-3-----|
|-4-----4-----4-------4-----4-----|-4-----4-----4-------4-----3-----|
|---2-2---2-2---2---------------2-|---2-2---2-2---2---------------1-|
|---------------------------------|---------------------------------|
|                                 |                                 |
|---------------------------------|---------------------------------|
|---------------------------------|---------------------------------|
|---------------------------------|---------------------------------|
|-4-----4-----4-------------4-----|-4-----4-----4-------------3-----|
|-2-2-2-2-2-2-2-2-2p0---0-3-2---2-|-2-2-2-2-2-2-2-2-2p0---0-3-1---1-|
|---------------------2-----------|---------------------2-----------|


|---------------------------------|---------------------------------|
|---------------------------------|---------------------------------|
|-3-----3-----3---3p2---2-5-3-----|-3-----3-----3---3p2---2-5-4-----|
|-3-----3-----3-------5-----3-----|-3-----3-----3-------5-----4-----|
|---1-1---1-1---1---------------1-|---1-1---1-1---1---------------2-|
|---------------------------------|---------------------------------|
|                                 |                                 |
|---------------------------------|---------------------------------|
|---------------------------------|---------------------------------|
|---------------------------------|---------------------------------|
|-3-----3-----3-------------3-----|-3-----3-----3-------------4-----|
|-1-1-1-1-1-1-1-1-1p0---0-3-1---1-|-1-1-1-1-1-1-1-1-1p0---0-3-2---2-|
|---------------------3-----------|---------------------3-----------|


|---------------------------------|---------------------------------|
|---------------------------------|---------------------------------|
|-4-----4-----4---4p2---2-5-4-----|-4-----4-----4---4p2---2-5-4-----|
|-4-----4-----4-------4-----4-----|-4-----4-----4-------4-----4-----|
|---2-2---2-2---2---------------2-|---2-2---2-2---2---------------2-|
|---------------------------------|---------------------------------|
|                                 |                                 |
|---------------------------------|---------------------------------|
|---------------------------------|---------------------------------|
|---------------------------------|---------------------------------|
|-4-----4-----4-------------4-----|-4-----4-----4-------------4-----|
|-2-2-2-2-2-2-2-2-2p0---0-3-2---2-|-2-2-2-2-2-2-2-2-2p0---0-3-2---2-|
|---------------------2-----------|---------------------2-----------|




(1:34)
Riff 2

|-----------------|-----------------|-----------------|-----------------|
|-----------------|-----------------|-----------------|-----------------|
|-----------------|-----------------|-----------------|-----------------|
|-----------------|-------------5-4-|-----------------|-----------------|
|-2---2-----5-4---|-5-4---4---5-3-2-|-2---2-----5-4---|-5-4---4----5----|
|-0---0-----3-2---|-3-2---2---3-----|-0---0-----3-2---|-3-2---2----3----|



|-----------------|-----------------|-----------------|-----------------|
|-----------------|-----------------|-----------------|-----------------|
|-----------------|-----------------|-----------------|-----------------|
|-----------------|-------------5-4-|-----------------|-----------------|
|-X---2-----5-4---|-5-4---4---5-3-2-|-2---2-----5-4-5-|-------------2-2-|
|-X---0-----3-2---|-3-2---2---3-----|-0---0-----3-2-3-|-----------------|




|---------------------------------|---------------------------------|
|---------------------------------|---------------------------------|
|-4-----4-----4---4p2---2-5-4-----|-4-----4-----4---4p2---2-5-4-----|
|-4-----4-----4-------4-----4-----|-4-----4-----4-------4-----4-----|
|---2-2---2-2---2---------------2-|---2-2---2-2---2---------------2-|
|---------------------------------|---------------------------------|
|                                 |                                 |
|---------------------------------|---------------------------------|
|---------------------------------|---------------------------------|
|---------------------------------|---------------------------------|
|-4-----4-----4-------------4-----|-4-----4-----4-------------4-----|
|-2-2-2-2-2-2-2-2-2p0---0-3-2---2-|-2-2-2-2-2-2-2-2-2p0---0-3-2---2-|
|---------------------2-----------|---------------------2-----------|


|---------------------------------|---------------------------------|
|---------------------------------|---------------------------------|
|-4-----4-----4---4p2---2-5-4-----|-4-----4-----4---4p2---2-5-3-----|
|-4-----4-----4-------4-----4-----|-4-----4-----4-------4-----3-----|
|---2-2---2-2---2---------------2-|---2-2---2-2---2---------------1-|
|---------------------------------|---------------------------------|
|                                 |                                 |
|---------------------------------|---------------------------------|
|---------------------------------|---------------------------------|
|---------------------------------|---------------------------------|
|-4-----4-----4-------------4-----|-4-----4-----4-------------3-----|
|-2-2-2-2-2-2-2-2-2p0---0-3-2---2-|-2-2-2-2-2-2-2-2-2p0---0-3-1---1-|
|---------------------2-----------|---------------------2-----------|


|---------------------------------|---------------------------------|
|---------------------------------|---------------------------------|
|-3-----3-----3---3p2---2-5-3-----|-3-----3-----3---3p2---2-5-4-----|
|-3-----3-----3-------5-----3-----|-3-----3-----3-------5-----4-----|
|---1-1---1-1---1---------------1-|---1-1---1-1---1---------------2-|
|---------------------------------|---------------------------------|
|                                 |                                 |
|---------------------------------|---------------------------------|
|---------------------------------|---------------------------------|
|---------------------------------|---------------------------------|
|-3-----3-----3-------------3-----|-3-----3-----3-------------4-----|
|-1-1-1-1-1-1-1-1-1p0---0-3-1---1-|-1-1-1-1-1-1-1-1-1p0---0-3-2---2-|
|---------------------3-----------|---------------------3-----------|


|---------------------------------|---------------------------------|
|---------------------------------|---------------------------------|
|-4-----4-----4---4p2---2-5-4-----|-4-----4-----2-------------------|
|-4-----4-----4-------4-----4-----|-4-----4-----2-------------------|
|---2-2---2-2---2---------------2-|---2-2---2-2-0-------------------|
|---------------------------------|---------------------------------|
|                                 |                                 |
|---------------------------------|---------------------------------|
|---------------------------------|---------------------------------|
|---------------------------------|-------------2-------------------|
|-4-----4-----4-------------4-----|-4-----4-----2-------------------|
|-2-2-2-2-2-2-2-2-2p0---0-3-2---2-|-2-2-2-2-2-2-0-------------------|
|---------------------2-----------|---------------------------------|




(2:08)
Twin guitar solo (harmonized 3rd above)



  B5                  G5                      B5             G5

|------------12-------14---15-14-12tr14---------------------------------------------
|-12---14-15----15-14--------------------14---15-15-14-12-------12------------------
|---------------------------------------------------------14-11----11-14-11-10-11---
|-----------------------------------------------------------------------------------
|-----------------------------------------------------------------------------------
|-----------------------------------------------------------------------------------
             

|-------------------------------------12-13b(14)-13b(14)-13b(14)-13b(14)-13--------
|-15-14------17-15-14---14-15-17---15----------------------------------------------
|-------11-------------------------------------------------------------------------
|----------------------------------------------------------------------------------
|----------------------------------------------------------------------------------
|----------------------------------------------------------------------------------


|-14-------12-------10-------10-------10------------------------------------------------
|----15-------14-------12-------12-------12-8-10-10b(12)-10b(12)-10b(12)-10b(12)-10-8---
|-------17-------14-------12-------12---------------------------------------------------
|---------------------------------------------------------------------------------------
|---------------------------------------------------------------------------------------
|---------------------------------------------------------------------------------------


|------7-7-7-7-9p7-7-7-10p7-7-7-12p7-7-7-13p7-7-7-12p7-7-10p7-7-7-9p7-7-7------------
|-10---------------------------------------------------------------------------------
|------------------------------------------------------------------------------------
|------------------------------------------------------------------------------------
|------------------------------------------------------------------------------------
|------------------------------------------------------------------------------------


|-14p0-12p0-10p0-12p0-14p0-12p0-10p0-12p0-14---b(15)----
|-------------------------------------------------------
|-------------------------------------------------------
|-------------------------------------------------------
|-------------------------------------------------------
|-------------------------------------------------------




(2:30)
Chorus

  No commands...               ...No more...
|-------------------------------|-------------------------------|
|-------------------------------|-------------------------------|
|-------------------------------|-------------------------------|
|-9-----------------------------|-10----------------------------|
|-7-----------------------------|-8-----------------------------|
|-------------------------------|-------------------------------|
|                                                               |
|                                                               |
|-------------------------------|-------------------------------|
|-------------------------------|-------------------------------|
|-------------------------------|-------------------------------|
|-------------------------------|-------------------------------|
|-------------------------------|-------------------------------|
|-0--0-0-0-0-0-0-0--0-0-0-0-0-0-|-0--0-0-0-0-0-0-0--0-0-0-0-0-0-|

  Take no orders from you no more...
|-------------------------------|-------------------------------|
|-------------------------------|-------------------------------|
|-------------------------------|-------------------------------|
|-7-----------------------------|-6-----------------------------|
|-5-----------------------------|-4-----------------------------|
|-------------------------------|-------------------------------|
|                                                               |
|                                                               |
|-------------------------------|-------------------------------|
|-------------------------------|-------------------------------|
|-------------------------------|-------------------------------|
|-------------------------------|-------------------------------|
|-------------------------------|-------------------------------|
|-0--0-0-0-0-0-0-0--0-0-0-0-0-0-|-0--0-0-0-0-0-0-0--0-0-0-0-0-0-|


|-------------------------------|-------------------------------|
|-------------------------------|-------------------------------|
|-------------------------------|-------------------------------|
|-9-----------------------------|-10----------------------------|
|-7-----------------------------|-8-----------------------------|
|-------------------------------|-------------------------------|
|                                                               |
|                                                               |
|-------------------------------|-------------------------------|
|-------------------------------|-------------------------------|
|-------------------------------|-------------------------------|
|-------------------------------|-------------------------------|
|-------------------------------|-------------------------------|
|-5--5-5-5-5-5-5-5--5-5-5-5-5-5-|-5--5-5-5-5-5-5-5--5-5-5-5-5-5-|


|-------------------------------|-------------------------------|
|-------------------------------|-------------------------------|
|-------------------------------|-------------------------------|
|-7-----------------------------|-------------------------------|
|-5-----------------------------|-0\----------------------------|
|-------------------------------|-------------------------------|
|                                                               |
|                                                               |
|-------------------------------|-------------------------------|
|-------------------------------|-------------------------------|
|-------------------------------|-------------------------------|
|-------------------------------|-------------------------------|
|-------------------------------|-------------------------------|
|-5--5-5-5-5-5-5-5--5-5-5-5-5-5-|-5--5-5-5-5-5-5-5--5-5-5-5-5-5-|


|-------------------------------|-------------------------------|
|-------------------------------|-------------------------------|
|-------------------------------|-------------------------------|
|-9-----------------------------|-10----------------------------|
|-7-----------------------------|-8-----------------------------|
|-------------------------------|-------------------------------|
|                                                               |
|                                                               |
|-------------------------------|-------------------------------|
|-------------------------------|-------------------------------|
|-------------------------------|-------------------------------|
|-------------------------------|-------------------------------|
|-------------------------------|-------------------------------|
|-7--7-7-7-7-7-7-7--7-7-7-7-7-7-|-7--7-7-7-7-7-7-7--7-7-7-7-7-7-|


|-------------------------------|-------------------------------|
|-------------------------------|-------------------------------|
|-------------------------------|-------------------------------|
|-7-----------------------------|-6-----------------------------|
|-5-----------------------------|-4-----------------------------|
|-------------------------------|-------------------------0-0-0-|
|                                                               |
|                                                               |
|-------------------------------|-------------------------------|
|-------------------------------|-------------------------------|
|-------------------------------|-------------------------------|
|-------------------------------|-------------------------------|
|-------------------------------|-------------------------------|
|-7--7-7-7-7-7-7-7--7-7-7-7-7-7-|-7--7-7-7-7-7-7-7--7-7-7-7-7-7-|


|-------------------------------|-------------------------------|
|-------------------------------|-------------------------------|
|-------------------------------|-------------------------------|
|-9-----------------------------|-10----------------------------|
|-7-----------------------------|-8-----------------------------|
|-------------------------------|-------------------------------|
|                                                               |
|                                                               |
|-------------------------------|-------------------------------|
|-------------------------------|-------------------------------|
|-------------------------------|-------------------------------|
|-------------------------------|-------------------------------|
|-------------------------------|-------------------------------|
|-0--0-0-0-0-0-0-0--0-0-0-0-0-0-|-0--0-0-0-0-0-0-0--0-0-0-0-0-0-|


|-------------------------------|-------------------------------|-----
|-------------------------------|-------------------------------|-----
|-------------------------------|-------------------------------|-----
|-7-----------------------------|-6-----------------------------|-2---
|-5-----------------------------|-4-----------------------------|-2---
|-------------------------------|-------------------------------|-0---
|                                                               |
|                                                               |
|-------------------------------|-------------------------------|-----
|-------------------------------|-------------------------------|-----
|-------------------------------|-------------------------------|-----
|-------------------------------|-------------------------------|-2---
|-------------------------------|-------------------------------|-2---
|-0--0-0-0-0-0-0-0--0-0-0-0-0-0-|-0--0-0-0-0-0-0-0--0-0-0-0-0-0-|-0---



(2:54)
Riff 3

||------------------------------|------------------------------|
||------------------------------|------------------------------|
||------------------------------|------------------------------|
||------------------------------|------------------------------|
||-2----------2----------2------|-2----------2----------2------|
||-0--0-0-0-0-0--0-0-0-0-0--0-0-|-0--0-0-0-0-0--0-0-0-0-0--0-0-|
 
                                                              
|------------------------------|------------------------------||
|------------------------------|------------------------------||
|------------------------------|------------------------------||
|------------------------------|------------------------------||
|-6----------6----------6------|-5----------7----------7-/-10-||
|-4--4-4-4-4-4--4-4-4-4-4--4-4-|-3--3-3-3-3-5--5-5-5-5-5-/-8--||




Guitar solo (riff 3)

Riff 2

Verse (riff 3)

Chorus
comments
print report bad tab
I want to post or [tab]
guest
You may want to rate the tab now too:
select rating
Please do not post tabs as comments. Select "correction" instead!