Oops, an error
Loading. Please wait.

Check This One Out Tab

242 views 1 this week
3 commentsread comments
1 2 3 4 5
please rate
Autoscroll
+/-
esc
set tempo
stop
Contributor
Hey! There's an official Ultimate Guitar app which is ideal
for learning songs when you're away from computer. Get the app
WARNING: You are trying to view
                                    content from Ultimate-Guitar.com
                                    in an unauthorized application,
                                    which is prohibited.

                                    Please use an official Ultimate
                                    Guitar Tabs application for iPhone,
                                    iPad or Android to access legitimate
                                    chords, guitar, bass, and drum tabs
                                    from Ultimate-Guitar.com database.

                                    Type "ultimate guitar tabs" in Apple
                                    App Store's or Android Market's
                                    search to find the application.
Band- Stone Sour
Song- Check This One Out

C#||--------------------------------|-------------------------------||
G#||--------------------------------|-------------------------------||
E ||--------------------------------|------------------------------*||
B ||--------------------------------|------------------------------*||
F#||--3/-0-0-0-0-3/-0-0-0-0-3/0-0-0-|--3/-0-0-0-0-3/-0-0-0-0-3--6---||
B ||--3/-0-0-0-0-3/-0-0-0-0-3/0-0-0-|--3/-0-0-0-0-3/-0-0-0-0-3--6---||


                                                                       
--------------------|------------------------|------------------------|
--------------------|------------------------|------------------------|
--------------------|------------------------|------------------------|
--------------------|------------------------|------------------------|
--------3--2--------|--0----0--0--0--6----0--|--0----0----1--0--1--0--|
--------3--2--------|--0----0--0--0--6----0--|--0----0----1--0--1--0--|


                                                                           
------------------------|------------------------|------------------------|
------------------------|------------------------|------------------------|
------------------------|------------------------|------------------------|
------------------------|------------------------|------------------------|
--0----0--0--0--6----0--|--0----0--0--------5~---|--0----0--0--0--6----0--|
--0----0--0--0--6----0--|--0----0--0--0--3-------|--0----0--0--0--6----0--|


                                                                           
------------------------|------------------------|------------------------|
------------------------|------------------------|------------------------|
------------------------|------------------------|------------------------|
------------------------|------------------------|------------------------|
--0----0----1--0--1--0--|--0----0--0--0--6----0--|--0----0--0--------5~---|
--0----0----1--0--1--0--|--0----0--0--0--6----0--|--0----0--0--0--3-------|


                                                                           
------------------------|------------------------|------------------------|
------------------------|------------------------|------------------------|
------------------------|------------------------|------------------------|
------------------------|------------------------|------------------------|
--0--0----0-0-0--0------|--0--0----0-0-1----4----|--0--0----0-0-0--0------|
--0--0----0-0-0--0------|--0--0----0-0-1----4----|--0--0----0-0-0--0------|


                                                                             
--------------------------|------------------------|------------------------|
--------------------------|------------------------|------------------------|
--------------------------|------------------------|------------------------|
--------------------------|------------------------|------------------------|
--0--0----0-0-------6--5--|--0--0----0-0-0--0------|--0--0----0-0-1----4----|
--0--0----0-0-6--5--------|--0--0----0-0-0--0------|--0--0----0-0-1----4----|


                                                                         
------------------------|--------------------------|--------------------|
------------------------|--------------------------|--------------------|
------------------------|--------------------------|--3------2----------|
------------------------|--------------------------|--x------x----------|
--0--0----0-0-0--0------|--0--0----0-0-------6--5--|--1------0----------|
--0--0----0-0-0--0------|--0--0----0-0-6--5--------|--------------------|


                                                                   
--------------------|--------------------|------------------------|
--------------------|--------------------|------------------------|
--3------2----------|--3------2----------|------------------------|
--x------x----------|--x------x----------|-----2------------------|
--1------0----------|--1------0----------|--0-----2--0--3--2~-----|
--------------------|--------------------|------------------------|


                                                               
--------------------|--------------------|--------------------|
--------------------|--------------------|--------------------|
--3------2----------|--3------2----------|--3------2----------|
--x------x----------|--x------x----------|--x------x----------|
--1------0----------|--1------0----------|--1------0----------|
--------------------|--------------------|--------------------|


                                                                           
------------------------|-----------------------|-------------------------|
------------------------|-----------------------|-------------------------|
------------------------|-----------------------|-------------------------|
------------------------|-----------------------|-------------------------|
------------------------|--3--5----0------3--0--|--3--5----0--6--5--3--0--|
--3--2--1--0--6--5~-----|--3--5----0------3--0--|--3--5----0--6--5--3--0--|


                                                                          
-----------------------|-------------------------|-----------------------|
-----------------------|-------------------------|-----------------------|
-----------------------|-------------------------|-----------------------|
-----------------------|-------------------------|-----------------------|
--3--5----0------3--0--|--3--5----0--6--5--3--0--|--3--5----0------3--0--|
--3--5----0------3--0--|--3--5----0--6--5--3--0--|--3--5----0------3--0--|


                                                                           
-------------------------|-----------------------|------------------------|
-------------------------|-----------------------|------------------------|
-------------------------|-----------------------|------------------------|
-------------------------|-----------------------|------------------------|
--3--5----0--6--5--3--0--|--3--5----0------3--0--|--3--5----0--6--5--3----|
--3--5----0--6--5--3--0--|--3--5----0------3--0--|--3--5----0--6--5--3----|


                                                                             
|-------------------------|------------------------|------------------------|
|-------------------------|------------------------|------------------------|
|*------------------------|------------------------|------------------------|
|*------------------------|------------------------|------------------------|
|---0----0--0--0--6----0--|--0----0----1--0--1--0--|--0----0--0--0--6----0--|
|---0----0--0--0--6----0--|--0----0----1--0--1--0--|--0----0--0--0--6----0--|


                                                                              
-------------------------||-------------------------|------------------------|
-------------------------||-------------------------|------------------------|
------------------------*||*------------------------|------------------------|
------------------------*||*------------------------|------------------------|
--0----0--0--------5~----||---0--0----0-0-0--0------|--0--0----0-0-1----4----|
--0----0--0--0--3--------||---0--0----0-0-0--0------|--0--0----0-0-1----4----|


                                                                           
------------------------|---------------------------||--------------------|
------------------------|---------------------------||--------------------|
------------------------|--------------------------*||--3------2----------|
------------------------|--------------------------*||--x------x----------|
--0--0----0-0-0--0------|--0--0----0-0-------6--5---||--1------0----------|
--0--0----0-0-0--0------|--0--0----0-0-6--5---------||--------------------|


                                                                   
--------------------|--------------------|------------------------|
--------------------|--------------------|------------------------|
--3------2----------|--3------2----------|------------------------|
--x------x----------|--x------x----------|-----2------------------|
--1------0----------|--1------0----------|--0-----2--0--3--2~-----|
--------------------|--------------------|------------------------|


                                                               
--------------------|--------------------|--------------------|
--------------------|--------------------|--------------------|
--3------2----------|--3------2----------|--3------2----------|
--x------x----------|--x------x----------|--x------x----------|
--1------0----------|--1------0----------|--1------0----------|
--------------------|--------------------|--------------------|


                                                                           
------------------------|-----------------------|-------------------------|
------------------------|-----------------------|-------------------------|
------------------------|-----------------------|-------------------------|
------------------------|-----------------------|-------------------------|
------------------------|--3--5----0------3--0--|--3--5----0--6--5--3--0--|
--3--2--1--0--6--5~-----|--3--5----0------3--0--|--3--5----0--6--5--3--0--|


                                                                          
-----------------------|-------------------------|-----------------------|
-----------------------|-------------------------|-----------------------|
-----------------------|-------------------------|-----------------------|
-----------------------|-------------------------|-----------------------|
--3--5----0------3--0--|--3--5----0--6--5--3--0--|--3--5----0------3--0--|
--3--5----0------3--0--|--3--5----0--6--5--3--0--|--3--5----0------3--0--|


                                                                            
-------------------------|-----------------------|-------------------------|
-------------------------|-----------------------|-------------------------|
-------------------------|-----------------------|-------------------------|
-------------------------|-----------------------|-------------------------|
--3--5----0--6--5--3--0--|--3--5----0------3--0--|--3--5----0--6--5--3--0--|
--3--5----0--6--5--3--0--|--3--5----0------3--0--|--3--5----0--6--5--3--0--|


                             3x                            3x
|----------------------------||----------------------------||
|----------------------------||----------------------------||
|*--------------------------*||*--------------------------*||
|*--------------------------*||*--------------------------*||
|----------------------------||---5--6--5--0--1--2--3--0---||
|---5--6--5--0--1--2--3--0---||---5--6--5--0--1--2--3--0---||


                                                                           
------------------------|------------------------|------------------------|
------------------------|------------------------|------------------------|
------------------------|------------------------|------------------------|
------------------------|------------------------|------------------------|
--0----0--0--0--6----0--|--0----0----1--0--1--0--|--0----0--0--0--6----0--|
--0----0--0--0--6----0--|--0----0----1--0--1--0--|--0----0--0--0--6----0--|


                                                                           
------------------------|------------------------|------------------------|
------------------------|------------------------|------------------------|
------------------------|------------------------|------------------------|
------------------------|------------------------|------------------------|
--0----0--0--------5~---|--0----0--0--0--6----0--|--0----0----1--0--1--0--|
--0----0--0--0--3-------|--0----0--0--0--6----0--|--0----0----1--0--1--0--|


                                                                           
------------------------|------------------------|------------------------|
------------------------|------------------------|------------------------|
------------------------|------------------------|------------------------|
------------------------|------------------------|------------------------|
--0----0--0--0--6----0--|--0----0--0--------5~---|--0--0----0-0-0--0------|
--0----0--0--0--6----0--|--0----0--0--0--3-------|--0--0----0-0-0--0------|


                                                                             
------------------------|------------------------|--------------------------|
------------------------|------------------------|--------------------------|
------------------------|------------------------|--------------------------|
------------------------|------------------------|--------------------------|
--0--0----0-0-1----4----|--0--0----0-0-0--0------|--0--0----0-0-------6--5--|
--0--0----0-0-1----4----|--0--0----0-0-0--0------|--0--0----0-0-6--5--------|


                                                                           
------------------------|------------------------|------------------------|
------------------------|------------------------|------------------------|
------------------------|------------------------|------------------------|
------------------------|------------------------|------------------------|
--0--0----0-0-0--0------|--0--0----0-0-1----4----|--0--0----0-0-0--0------|
--0--0----0-0-0--0------|--0--0----0-0-1----4----|--0--0----0-0-0--0------|


                                                                     
--------------------------|--------------------|--------------------|
--------------------------|--------------------|--------------------|
--------------------------|--3------2----------|--3------2----------|
--------------------------|--x------x----------|--x------x----------|
--0--0----0-0-------6--5--|--1------0----------|--1------0----------|
--0--0----0-0-6--5--------|--------------------|--------------------|


                                                                   
--------------------|------------------------|--------------------|
--------------------|------------------------|--------------------|
--3------2----------|------------------------|--3------2----------|
--x------x----------|-----2------------------|--x------x----------|
--1------0----------|--0-----2--0--3--2~-----|--1------0----------|
--------------------|------------------------|--------------------|


                                                                   
--------------------|--------------------|------------------------|
--------------------|--------------------|------------------------|
--3------2----------|--3------2----------|------------------------|
--x------x----------|--x------x----------|------------------------|
--1------0----------|--1------0----------|------------------------|
--------------------|--------------------|--3--2--1--0--6--5~-----|


                                                                          
-----------------------|-------------------------|-----------------------|
-----------------------|-------------------------|-----------------------|
-----------------------|-------------------------|-----------------------|
-----------------------|-------------------------|-----------------------|
--3--5----0------3--0--|--3--5----0--6--5--3--0--|--3--5----0------3--0--|
--3--5----0------3--0--|--3--5----0--6--5--3--0--|--3--5----0------3--0--|


                                                                            
-------------------------|-----------------------|-------------------------|
-------------------------|-----------------------|-------------------------|
-------------------------|-----------------------|-------------------------|
-------------------------|-----------------------|-------------------------|
--3--5----0--6--5--3--0--|--3--5----0------3--0--|--3--5----0--6--5--3--0--|
--3--5----0--6--5--3--0--|--3--5----0------3--0--|--3--5----0--6--5--3--0--|


                                                 
-----------------------|------------------------|
-----------------------|------------------------|
-----------------------|------------------------|
-----------------------|------------------------|
--3--5----0------3--0--|--3--5----0--6--5--3----|
--3--5----0------3--0--|--3--5----0--6--5--3----|


                                                                  3x
|---------------------------------|-------------------------------||
|---------------------------------|-------------------------------||
|*--------------------------------|------------------------------*||
|*--------------------------------|------------------------------*||
|---3/-0-0-0-0-3/-0-0-0-0-3/0-0-0-|--3/-0-0-0-0-3/-0-0-0-0-3--6---||
|---3/-0-0-0-0-3/-0-0-0-0-3/0-0-0-|--3/-0-0-0-0-3/-0-0-0-0-3--6---||
comments
We did not receive enough feedback on this tab! Please rate:
print report bad tab
1 2 3 4 5
3 comments total.
0 reply
I_AM_FOREVER wrote on September 6 2005, 12:00 am

ummmmm is this get inside??????

0 reply
I_AM_FOREVER wrote on September 6 2005, 12:00 am

ummmmm is this get inside??????

0 reply
leoslipknot wrote on February 11 2009, 10:46 pm

that song call get inside ^^
and its

* B|------------------------|------------------------|
F#|--0----0--0-------------|--0----0--0--0--6----0--|
B|--0----0--0--3--6--2~---|--0----0--0--0--6----0--|

I want to post or [tab]
guest
You may want to rate the tab now too:
select rating
Please do not post tabs as comments. Select "correction" instead!