Oops, an error
Loading. Please wait.

Hell And Consequences Tab

ver6
ver6
More versions @911Tabs.com
437 views 3 this week
1 commentread comment
1 2 3 4 5
excellent!
x 2
Autoscroll
+/-
esc
set tempo
stop
Contributor
Difficulty
Tuning
intermediate
B F# B E G# C#
Hey! There's an official Ultimate Guitar app which is ideal
for learning songs when you're away from computer. Get the app
WARNING: You are trying to view
                                    content from Ultimate-Guitar.com
                                    in an unauthorized application,
                                    which is prohibited.

                                    Please use an official Ultimate
                                    Guitar Tabs application for iPhone,
                                    iPad or Android to access legitimate
                                    chords, guitar, bass, and drum tabs
                                    from Ultimate-Guitar.com database.

                                    Type "ultimate guitar tabs" in Apple
                                    App Store's or Android Market's
                                    search to find the application.
#----------------------------------PLEASE NOTE---------------------------------#
#This file is the author's own work and represents their interpretation of the #
#song. You may only use this file for private study, scholarship, or research. #
#------------------------------------------------------------------------------##

                               HELL & CONSEQUENCES
                            As recorded by Stone Sour
                    (From the 2006 Album COME WHAT(EVER) MAY)

Words and Music by Shawn Economaki, Josh Rand, Corey Taylor and James Root
Transcribed by Liam Briggs - briggs.liam@gmail.com

Gtr I (B F# B E G# C#) - 'Guitar 1'
Gtr II (B F# B E G# C#) - 'Guitar 2'
Gtr III (B F# B E G# C#) - 'Guitar 3'
Gtr IV (B F# B E G# C#) - 'Guitar 4'
Gtr V (B F# B E G# C#) - 'Guitar 5'

 Intro
  Fast Rock Q=170
  N.C.           G5F5D5AbF5D5G5F5  G5F5D5AbF5D5G5F5
 4/4
  Gtrs I, II
  H    Q   Q     E E E E E E E E   E E E E E E E E
|--------------|-----------------|-----------------|
|--------------|-----------------|-----------------|
|--------------|-----------------|-----------------|
|--------------|-----------------|-----------------|
|--------------|-----------------|-----------------|
|---------17\--|-5-3-0-6-3-0-5-3-|-5-3-0-6-3-0-5-3-|


  G5F5D5AbF5D5G5F5  G5F5D5AbF5D5G5F5
  E E E E E E E E   E E E E E E E E
|-----------------|------------------|
|-----------------|------------------|
|-----------------|------------------|
|-----------------|------------------|
|-----------------|------------------|
|-5-3-0-6-3-0-5-3-|-5-3-0-6-3-0-5-3--|


  G5 F5 D5Ab5F5 D5G5 F5   G5 F5 D5Ab5F5 D5G5 F5
  Gtr I
   E  E E  E  E E  E  E    E  E E  E  E E  E  E
|-----------------------|-----------------------|
|-----------------------|-----------------------|
|-----------------------|-----------------------|
|-----------------------|-----------------------|
|-----------------------|-----------------------|
|-17-15-0-18-15-0-17-15-|-17-15-0-18-15-0-17-15-|
|
| Gtr II
|  PM--------------------------------------------
|  E  E E  E  E E  E  E    E  E E  E  E E  E  E
|-----------------------|-----------------------|
|-----------------------|-----------------------|
|-----------------------|-----------------------|
|-----------------------|-----------------------|
|--5--3-0--6--3-0--5--3-|--5--3-0--6--3-0--5--3-|
|--5--3-0--6--3-0--5--3-|--5--3-0--6--3-0--5--3-|


  G5 F5 D5Ab5F5 D5G5 F5   G5 F5 D5Ab5F5 D5G5 F5
   E  E E  E  E E  E  E    E  E E  E  E E  E  E
|-----------------------|-----------------------|
|-----------------------|-----------------------|
|-----------------------|-----------------------|
|-----------------------|-----------------------|
|-----------------------|-----------------------|
|-17-15-0-18-15-0-17-15-|-17-15-0-18-15-0-17-15-|
|
|--------------------------------------------|
|  E  E E  E  E E  E  E    E  E E  E  E E  E  E
|-----------------------|-----------------------|
|-----------------------|-----------------------|
|-----------------------|-----------------------|
|-----------------------|-----------------------|
|--5--3-0--6--3-0--5--3-|--5--3-0--6--3-0--5--3-|
|--5--3-0--6--3-0--5--3-|--5--3-0--6--3-0--5--3-|


    D5                    Eb5 D5                    Eb5
    Gtrs I, II
    PM----|     PM----|       PM----|     PM----|
    S S S S E E S S S S E E   S S S S E E S S S S E E
||--------------------------|--------------------------||
||o-------------------------|-------------------------o||
||--------------------------|--------------------------||
||--------------------------|--------------------------||
||o-------------------------|-------------------------o||
||--0-0-0-0-0---0-0-0-0-0h1-|-0-0-0-0-0---0-0-0-0-0h1--||


   Verse 1
    Dm      D°        Dm          G5F5  Dm      D°        Dm          G5F5
    Gtrs I, II
    E E E E E E E E   E E E E E E E E   E E E E E E E E   E E E E E E E E
||------------------|-----------------|-----------------|-------------------||
||o-----------------|-----------------|-----------------|------------------o||
||------------------|-----------------|-----------------|-------------------||
||------------------|-----------------|-----------------|-------------------||
||o-----5-----------|-------5---------|-----5-----------|-------5----------o||
||--0-3---3-0-6-3-0-|-3-0-3---3-0-5-3-|-0-3---3-0-6-3-0-|-3-0-3---3-0-5-3---||


   Pre-Chorus
    D5                    Eb5 D5                    Eb5
    Gtrs I, II
    PM----|     PM----|       PM----|     PM----|
    S S S S E E S S S S E E   S S S S E E S S S S E E
||--------------------------|--------------------------||
||o-------------------------|-------------------------o||
||--------------------------|--------------------------||
||--------------------------|--------------------------||
||o-------------------------|-------------------------o||
||--0-0-0-0-0---0-0-0-0-0h1-|-0-0-0-0-0---0-0-0-0-0h1--||


 Chorus
  F5
  Gtrs I, II
   Q     E  E +H             +H.                +Q
|--------------------------|---------------------------|
|--------------------------|---------------------------|
|--5-----x--5-(5)----------|-(5)----------------(5)S===|
|--3-----x--3-(3)----------|-(3)----------------(3)S===|
|--3-----x--3-(3)----------|-(3)----------------(3)S===|
|--3-----x--3-(3)----------|-(3)----------------(3)S===|
|
| Gtr III
|  E  E  E  E  E   E  E  E    E   E  E  E  E  E  E   E
|-13-13-15----13--15-13-15-|-----13-15----13-15-----15-|
|----------13--------------|-13--------13-------13-----|
|--------------------------|---------------------------|
|--------------------------|---------------------------|
|--------------------------|---------------------------|
|--------------------------|---------------------------|


  Ab5
   Q     E  E +H             +H.                +Q
|--------------------------|----------------------------|
|--------------------------|----------------------------|
|--8-----x--8-(8)----------|-(8)----------------(8)S====|
|--6-----x--6-(6)----------|-(6)----------------(6)S====|
|--6-----x--6-(6)----------|-(6)----------------(6)S====|
|--6-----x--6-(6)----------|-(6)----------------(6)S====|
|
|  E  E  E  E  E   E  E  E    E   E  E  E  E  E  E   E
|-13-13-15----13--15-13-15-|-----13-15-13-13-15-13--15--|
|----------13--------------|----------------------------|
|--------------------------|----------------------------|
|--------------------------|----------------------------|
|--------------------------|----------------------------|
|--------------------------|----------------------------|


  Eb6add9/CEbsus2/Bb
   Q     E  E +H             +W
|--------------------------|--------------------------|
|--------------------------|--------------------------|
|--3-----x--3-(3)----------|-(3)----------------------|
|--1-----x--1-(1)----------|-(1)----------------------|
|--1-----x--1-(1)----------|-(1)----------------------|
|--1-----x--1-(1)----------|-(1)----------------------|
|
|  E  E  E  E  E   E  E  E    E   E  E  E  E  E  E  E
|-13-13-15----13--15-13-15-|-----13-15----13-15-13-15-|
|----------13--------------|-----------13-------------|
|--------------------------|--------------------------|
|--------------------------|--------------------------|
|--------------------------|--------------------------|
|--------------------------|--------------------------|


  F5       C5
   Q     E  E +H             +E   E  E  E  E  E  E  E
|--------------------------|---------------------------|
|--------------------------|---------------------------|
|--5-----x--5-(5)----------|-(5)--5--5--5--5--5--5--5--|
|--3-----x--5-(5)----------|-(5)--5--5--5--5--5--5--5--|
|--3-----x--3-(3)----------|-(3)--3--3--3--3--3--3--3--|
|--3-----x-----------------|---------------------------|
|
|  E  E  E  E  E   E  E  E    E   E  E  E  E  E  E  E
|-------15--------15----15-|--------15-------15----15--|
|-13-13----13-13-----13----|-13--13----13-13----13-----|
|--------------------------|---------------------------|
|--------------------------|---------------------------|
|--------------------------|---------------------------|
|--------------------------|---------------------------|


  F5
   Q     E  E +H             +H.                +Q
|--------------------------|---------------------------|
|--------------------------|---------------------------|
|--5-----x--5-(5)----------|-(5)----------------(5)S===|
|--3-----x--3-(3)----------|-(3)----------------(3)S===|
|--3-----x--3-(3)----------|-(3)----------------(3)S===|
|--3-----x--3-(3)----------|-(3)----------------(3)S===|
|
|  E  E  E  E  E   E  E  E    E   E  E  E  E  E  E   E
|-13-13-15----13--15-13-15-|-----13-15----13-15-13--15-|
|----------13--------------|-----------13--------------|
|--------------------------|---------------------------|
|--------------------------|---------------------------|
|--------------------------|---------------------------|
|--------------------------|---------------------------|


  Ab5
   Q     E  E +H             +H.                +Q
|--------------------------|----------------------------|
|--------------------------|----------------------------|
|--8-----x--8-(8)----------|-(8)----------------(8)S====|
|--6-----x--6-(6)----------|-(6)----------------(6)S====|
|--6-----x--6-(6)----------|-(6)----------------(6)S====|
|--6-----x--6-(6)----------|-(6)----------------(6)S====|
|
|  E  E  E  E  E   E  E  E    E   E  E  E  E  E  E   E
|-13-13-15-13-13--15----15-|-----13-15-13-13-15-13--15--|
|--------------------13----|----------------------------|
|--------------------------|----------------------------|
|--------------------------|----------------------------|
|--------------------------|----------------------------|
|--------------------------|----------------------------|


  Eb6add9/CEbsus2/Bb
   Q     E  E +H             +W
|--------------------------|--------------------------|
|--------------------------|--------------------------|
|--3-----x--3-(3)----------|-(3)----------------------|
|--1-----x--1-(1)----------|-(1)----------------------|
|--1-----x--1-(1)----------|-(1)----------------------|
|--1-----x--1-(1)----------|-(1)----------------------|
|
|  E  E  E  E  E   E  E  E    E   E  E  E  E  E  E  E
|-13-13-15-13-13--15----15-|-----13-15----13-15-13-15-|
|--------------------13----|-----------13-------------|
|--------------------------|--------------------------|
|--------------------------|--------------------------|
|--------------------------|--------------------------|
|--------------------------|--------------------------|


  F5       C5
   Q     E  E +H             +E   E  E  E  E  E  E  E
|--------------------------|---------------------------||
|--------------------------|---------------------------||
|--5-----x--5-(5)----------|-(5)--5--5--5--5--5--5--5--||
|--3-----x--5-(5)----------|-(5)--5--5--5--5--5--5--5--||
|--3-----x--3-(3)----------|-(3)--3--3--3--3--3--3--3--||
|--3-----x-----------------|---------------------------||
|
|  E  E  E  E  E   E  E  E    E   E  E  E  E  E  E  E
|-------15--------15----15-|--------15-------15--------||
|-13-13----13-13-----13----|-13--13----13-13----13-13--||
|--------------------------|---------------------------||
|--------------------------|---------------------------||
|--------------------------|---------------------------||
|--------------------------|---------------------------||


 Interlude
  F5G5F5G5F5D5        AbD5G5D5  F5G5  F5G5F5G5F5D5        AbD5G5D5  F5G5
  Gtrs I, II
              PM----|   PM  PM|                   PM----|   PM  PM|
  E E E E E E E E   E E E E E E E E   E E E E E E E E   E E E E E E E E
|-----------------|-----------------|-----------------|-----------------||
|-----------------|-----------------|-----------------|-----------------||
|-----------------|-----------------|-----------------|-----------------||
|-----------------|-----------------|-----------------|-----------------||
|-3h5-3h5-3p0-0-0-|-0-6---5-0-0-3h5-|-3h5-3h5-3p0-0-0-|-0-6---5-0-0-3h5-||
|-3h5-3h5-3p0-0-0-|-0-6-0-5-0-0-3h5-|-3h5-3h5-3p0-0-0-|-0-6-0-5-0-0-3h5-||


   Verse 2
    Dm      D°        Dm          G5F5  Dm      D°        Dm          G5F5
    Gtrs I, II
    E E E E E E E E   E E E E E E E E   E E E E E E E E   E E E E E E E E
||------------------|-----------------|-----------------|-------------------||
||o-----------------|-----------------|-----------------|------------------o||
||------------------|-----------------|-----------------|-------------------||
||------------------|-----------------|-----------------|-------------------||
||o-----5-----------|-------5---------|-----5-----------|-------5----------o||
||--0-3---3-0-6-3-0-|-3-0-3---3-0-5-3-|-0-3---3-0-6-3-0-|-3-0-3---3-0-5-3---||


   Pre-Chorus
    D5                    Eb5
    Gtrs I, II
    PM----|     PM----|
    S S S S E E S S S S E E
||--------------------------|
||o-------------------------|
||--------------------------|
||--------------------------|
||o-------------------------|
||--0-0-0-0-0---0-0-0-0-0h1-|
|
|   Gtr III
|   W
||--------------------------|
||o-------------------------|
||--------------------------|
||--------------------------|
||o-------------------------|
||--------------------------|


 1.                          2.
  D5                    Eb5   D5                    Eb5
  PM----|     PM----|         PM----|     PM----|
  S S S S E E S S S S E E     S S S S E E S S S S E  E
|--------------------------||--------------------------||
|-------------------------o||--------------------------||
|--------------------------||--------------------------||
|--------------------------||--------------------------||
|-------------------------o||--------------------------||
|-0-0-0-0-0---0-0-0-0-0h1--||-0-0-0-0-0---0-0-0-0-0h=1-||
|
| W                           H           Q       E  E
|--------------------------||-----------------------15-||
|-------------------------o||--------------------------||
|--------------------------||--------------------------||
|--------------------------||--------------------------||
|-------------------------o||--------------------------||
|--------------------------||--------------------------||


 Chorus
  F5
  Gtrs I, II
   Q     E  E +H             +H.                +Q
|--------------------------|---------------------------|
|--------------------------|---------------------------|
|--5-----x--5-(5)----------|-(5)----------------(5)S===|
|--3-----x--3-(3)----------|-(3)----------------(3)S===|
|--3-----x--3-(3)----------|-(3)----------------(3)S===|
|--3-----x--3-(3)----------|-(3)----------------(3)S===|
|
| Gtr III
|  E  E  E  E  E   E  E  E    E   E  E  E  E  E  E   E
|----13-15----13--15----15-|-----13-15----13-15-13--15-|
|-13-------13--------13----|-13--------13--------------|
|--------------------------|---------------------------|
|--------------------------|---------------------------|
|--------------------------|---------------------------|
|--------------------------|---------------------------|


  Ab5
   Q     E  E +H             +H.                +Q
|--------------------------|----------------------------|
|--------------------------|----------------------------|
|--8-----x--8-(8)----------|-(8)----------------(8)S====|
|--6-----x--6-(6)----------|-(6)----------------(6)S====|
|--6-----x--6-(6)----------|-(6)----------------(6)S====|
|--6-----x--6-(6)----------|-(6)----------------(6)S====|
|
|  E  E  E  E  E   E  E  E    E   E  E  E  E  E  E   E
|-13-13-15----13--15-13-15-|-13--13-15----13-15-13--15--|
|----------13--------------|-----------13---------------|
|--------------------------|----------------------------|
|--------------------------|----------------------------|
|--------------------------|----------------------------|
|--------------------------|----------------------------|


  Eb6add9/CEbsus2/Bb
   Q     E  E +H             +W
|--------------------------|--------------------------|
|--------------------------|--------------------------|
|--3-----x--3-(3)----------|-(3)----------------------|
|--1-----x--1-(1)----------|-(1)----------------------|
|--1-----x--1-(1)----------|-(1)----------------------|
|--1-----x--1-(1)----------|-(1)----------------------|
|
|  E  E  E  E  E   E  E  E    E   E  E  E  E  E  E  E
|----13-15----13--15----15-|-13--13-15----13-15----15-|
|-13-------13--------13----|-----------13-------13----|
|--------------------------|--------------------------|
|--------------------------|--------------------------|
|--------------------------|--------------------------|
|--------------------------|--------------------------|


  F5       C5
   Q     E  E +H             +E   E  E  E  E  E  E  E
|--------------------------|---------------------------|
|--------------------------|---------------------------|
|--5-----x--5-(5)----------|-(5)--5--5--5--5--5--5--5--|
|--3-----x--5-(5)----------|-(5)--5--5--5--5--5--5--5--|
|--3-----x--3-(3)----------|-(3)--3--3--3--3--3--3--3--|
|--3-----x-----------------|---------------------------|
|
|  E  E  E  E  E   E  E  E    E   E  E  E  E  E  E  E
|-------15--------15----15-|--------15-------15----15--|
|-13-13----13-13-----13----|-13--13----13-13----13-----|
|--------------------------|---------------------------|
|--------------------------|---------------------------|
|--------------------------|---------------------------|
|--------------------------|---------------------------|


  F5
   Q     E  E +H             +H.                +Q
|--------------------------|---------------------------|
|--------------------------|---------------------------|
|--5-----x--5-(5)----------|-(5)----------------(5)S===|
|--3-----x--3-(3)----------|-(3)----------------(3)S===|
|--3-----x--3-(3)----------|-(3)----------------(3)S===|
|--3-----x--3-(3)----------|-(3)----------------(3)S===|
|
|  E  E  E  E  E   E  E  E    E   E  E  E  E  E  E   E
|----13-15----13--15----15-|-----13-15----13-15-13--15-|
|-13-------13--------13----|-13--------13--------------|
|--------------------------|---------------------------|
|--------------------------|---------------------------|
|--------------------------|---------------------------|
|--------------------------|---------------------------|


  Ab5
   Q     E  E +H             +H.                +Q
|--------------------------|----------------------------|
|--------------------------|----------------------------|
|--8-----x--8-(8)----------|-(8)----------------(8)S====|
|--6-----x--6-(6)----------|-(6)----------------(6)S====|
|--6-----x--6-(6)----------|-(6)----------------(6)S====|
|--6-----x--6-(6)----------|-(6)----------------(6)S====|
|
|  E  E  E  E  E   E  E  E    E   E  E  E  E  E  E   E
|-13-13-15-13-13--15----15-|-----13-15----13-15-----15--|
|--------------------13----|-13--------13-------13------|
|--------------------------|----------------------------|
|--------------------------|----------------------------|
|--------------------------|----------------------------|
|--------------------------|----------------------------|


  Eb6add9/CEbsus2/Bb
   Q     E  E +H             +W
|--------------------------|--------------------------|
|--------------------------|--------------------------|
|--3-----x--3-(3)----------|-(3)----------------------|
|--1-----x--1-(1)----------|-(1)----------------------|
|--1-----x--1-(1)----------|-(1)----------------------|
|--1-----x--1-(1)----------|-(1)----------------------|
|
|  E  E  E  E  E   E  E  E    E   E  E  E  E  E  E  E
|----13-15----13--15-13-15-|-----13-15-13-13-15----15-|
|-13-------13--------------|-13-----------------13----|
|--------------------------|--------------------------|
|--------------------------|--------------------------|
|--------------------------|--------------------------|
|--------------------------|--------------------------|


  F5       C5
   Q     E  E +H             +E   E  E  E  E  E  E  E
|--------------------------|---------------------------||
|--------------------------|---------------------------||
|--5-----x--5-(5)----------|-(5)--5--5--5--5--5--5--5--||
|--3-----x--5-(5)----------|-(5)--5--5--5--5--5--5--5--||
|--3-----x--3-(3)----------|-(3)--3--3--3--3--3--3--3--||
|--3-----x-----------------|---------------------------||
|
|  E  E  E  E  E   E  E  E    E   E  E  E  E  E  E  E
|-------15--------15----15-|--------15-------15--------||
|-13-13----13-13-----13----|-13--13----13-13----13-13--||
|--------------------------|---------------------------||
|--------------------------|---------------------------||
|--------------------------|---------------------------||
|--------------------------|---------------------------||


 Interlude
  G5F5D5AbF5D5G5F5  G5F5D5AbF5D5G5F5  G5F5D5AbF5D5G5F5  G5F5D5AbF5D5G5F5
  Gtrs I, II
  E E E E E E E E   E E E E E E E E   E E E E E E E E   E E E E E E E E
|-----------------|-----------------|-----------------|-----------------||
|-----------------|-----------------|-----------------|-----------------||
|-----------------|-----------------|-----------------|-----------------||
|-----------------|-----------------|-----------------|-----------------||
|-----------------|-----------------|-----------------|-----------------||
|-5-3-0-6-3-0-5-3-|-5-3-0-6-3-0-5-3-|-5-3-0-6-3-0-5-3-|-5-3-0-6-3-0-5-3-||


 Guitar Solo
  F5   D5           Eb5D5            F5 D5 F5 D5   F5EbF5
  Gtrs I, II
             PM|           PM-----|      PM     PM
  E    E     E  E    E  E  E  E    E  E  E  E   E  E E E
|-------------------------------|------------------------|
|-------------------------------|------------------------|
|-------------------------------|------------------------|
|-------------------------------|------------------------|
|-3p===0-----0--0----1p=0--0--0-|--0--3--0--3---0--3-1-3-|
|-3p===0-----0--0----1p=0--0--0-|--0--3--0--3---0--3-1-3-|
|
| Gtr IV
|                                           ~~~~~~~
| S  S S  S  E  S S  E  E  E  E    E  E  E  E  +H
|-8h11p8h10s16S10p8-------------|------------------------|
|-------------------10----10s15-|-13----16-15-(15)-------|
|----------------------11-------|----14------------------|
|-------------------------------|------------------------|
|-------------------------------|------------------------|
|-------------------------------|------------------------|
|
| Gtr V
| W                                W
|-------------------------------|------------------------|
|-------------------------------|------------------------|
|-------------------------------|------------------------|
|-------------------------------|------------------------|
|-------------------------------|------------------------|
|-------------------------------|------------------------|


                      D5                Eb5D5         F5 D5 F5 D5 AbF5 G5
                                   PM-|      PM----|      PM    PM
   E                    E          E  E  E E E E    E  E  E  E  E E  E E
|------------------------------------------------|-----------------------|
|------------------------------------------------|-----------------------|
|------------------------------------------------|-----------------------|
|------------------------------------------------|-----------------------|
|--3p===================0----------0--0--1p0-0-0-|--0--3--0--3--0-6--3-5-|
|--3p===================0----------0--0--1p0-0-0-|--0--3--0--3--0-6--3-5-|
|
|  \1.5___/0____\1.5____/0_________|
|                                        ~~~~~~~~~~~~~~~~~~~~~~~~~~~~~~
|  |------------6-------------|
|  S     +S    +S      +S    +E   +Q     H          E  E  E  E  Q    Q
|------------------------------------------------|-----------------------|
|-13----(13)--(13)----(13)--(13)-(13)---11-------|-10-11-10----10---10---|
|------------------------------------------------|----------12-----------|
|------------------------------------------------|-----------------------|
|------------------------------------------------|-----------------------|
|------------------------------------------------|-----------------------|
|
|  E                    Q.               H          E  E  E  E  Q    Q
|-15s==================14---------------11-------|-10-11-10----10---10---|
|-15------------------------------------11-------|-10-11-10-12-10---10---|
|------------------------------------------------|----------12-----------|
|------------------------------------------------|-----------------------|
|------------------------------------------------|-----------------------|
|------------------------------------------------|-----------------------|
   H                                     H          E  E  E  E  Q    Q


  F5    D5             Eb5  D5
  Gtrs I, II
               PM----|                PM----------
   E     E     E     E   E   E        E     E
|------------------------------------------------|
|------------------------------------------------|
|------------------------------------------------|
|------------------------------------------------|
|--3p====0-----0-----0---1p==0--------0-----0----|
|--3p====0-----0-----0---1p==0--------0-----0----|
|
| Gtr IV
|  S  S  S  S  S  E.    +E   S  S  a  S  S  S  S
|----------------14----(14)----------------------|
|-10s11h13S15h16------------15p13-13p11p10-11-13-|
|------------------------------------------------|
|------------------------------------------------|
|------------------------------------------------|
|------------------------------------------------|


     F5D5    F5        D5 F5EbF5
 -|      PM             PM
   E E   E     E        E E E  E
|-----------------------------------|
|-----------------------------------|
|-----------------------------------|
|-----------------------------------|
|--0-3---0-----3--------0-3-1--3----|
|--0-3---0-----3--------0-3-1--3----|
|
|        \1_________|
|  Q    +E    +S   +S   E E E  S  S
|-10---(10)--(10)-(10)--------------|
|----------------------15s4-6S14h16-|
|-----------------------------------|
|-----------------------------------|
|-----------------------------------|
|-----------------------------------|


           D5                      Eb5   D5
                        PM---|                  PM--------
   E        E           E     E     E     E     E     E
|--------------------------------------------------------|
|--------------------------------------------------------|
|--------------------------------------------------------|
|--------------------------------------------------------|
|--3p=======0-----------0-----0-----1p====0-----0-----0--|
|--3p=======0-----------0-----0-----1p====0-----0-----0--|
|
|        T              T                 T
|  |--------6--------|
|  S  S  S  S  S  T  T  S  S  S  S  S  S  S  S  S  S  E
|-14h17-20p17p14h17p14-----------------------------------|
|----------------------------------15h19-22p19p15--------|
|----------------------20p17p15p14-----------------------|
|-------------------------------------------------19-----|
|----------------------------------------------------15\-|
|--------------------------------------------------------|


           F5 D5F5D5AbF5G5
 -|           PM  PM
   E        E E E E E E E
|-------------------------|
|-------------------------|
|-------------------------|
|-------------------------|
|--0--------3-0-3-0-6-3-5-|
|--0--------3-0-3-0-6-3-5-|
|
|  T        T
|  |--3--|
|  S  S  S  E E E E E Q
|-------------------------|
|-------------------------|
|-----------------7h8-7---|
|-17p13p10----------------|
|----------12p9s5---------|
|-------------------------|


  F5  D5       Eb5D5            F5 D5 F5 D5   F5 Eb5F5      D5    EbD5
  Gtrs I, II
        PM|         PM-------|      PM     PM                 PM|       PM--|
    E E E   E   E E E   E     E  E  E  E   E   E  E  E    E E E E E E   E    E
|--------------------------|---------------------------|-----------------------|
|--------------------------|---------------------------|-----------------------|
|--------------------------|---------------------------|-----------------------|
|--------------------------|---------------------------|-----------------------|
|---3p0-0---0---1p0-0---0--|--0--3--0--3---0---3--1--3-|--3p0-0-0-1p0---0----0-|
|---3p0-0---0---1p0-0---0--|--0--3--0--3---0---3--1--3-|--3p0-0-0-1p0---0----0-|
|
| Gtr IV
|   ~~~~        ~~~                                       ~~~
|   Q.     +E   Q.     +E     E  E  E  E  +E   E  E  E    H.           +E    E
|--------------------------|---------------------------|-----------------------|
|-/19-----(19)S16-----(16)S|=15-16S19S16-(16)-15-16S19S|=15-----------(15)s=10-|
|--------------------------|---------------------------|-----------------------|
|--------------------------|---------------------------|-----------------------|
|--------------------------|---------------------------|-----------------------|
|--------------------------|---------------------------|-----------------------|
|
| Gtr V
|   ~~~~        ~~~                                       ~~~
|   Q.     +E   H             E  E  E  E  +E   E  E  E    H.           +Q
|-/14-----(14)S11----------|-10-11S14S11-(11)-10-11S14S|=10-----------(10)\----|
|-/15-----(15)S11----------|-10-11S15S11-(11)-10-11S15S|=10-----------(10)\----|
|--------------------------|---------------------------|-----------------------|
|--------------------------|---------------------------|-----------------------|
|--------------------------|---------------------------|-----------------------|
|--------------------------|---------------------------|-----------------------|
    Q.     +E   H             E  E  E  E  +E   E  E  E    H.           +Q


      F5    D5 F5 D5 Ab5F5 G5
    PM       PM    PM
    E  E     E  E  E  E  E   E
|--------------------------------|
|--------------------------------|
|--------------------------------|
|--------------------------------|
|---0--3-----0--3--0--6--3---5---|
|---0--3-----0--3--0--6--3---5---|
|
|   E  E     E  E  E  E  E  +E
|--------------------------------|
|--10S15----15S13S15S10-10-(10)--|
|--------------------------------|
|--------------------------------|
|--------------------------------|
|--------------------------------|
|
|   E  S  S  E  E  E  E  E  +E
|-/12S17-17-17S15S17S12-12-(12)\-|
|-/12S17-17-17S15S17S12-12-(12)\-|
|--------------------------------|
|--------------------------------|
|--------------------------------|
|--------------------------------|
    E  S  S  E  E  E  E  E  +E


  F5  D5       Eb5D5            F5 D5 F5 D5   F5 Eb5F5
        PM|         PM-------|      PM     PM
    E E E   E   E E E   E     E  E  E  E   E   E  E  E
|--------------------------|----------------------------|
|--------------------------|----------------------------|
|--------------------------|----------------------------|
|--------------------------|----------------------------|
|---3p0-0---0---1p0-0---0--|--0--3--0--3---0---3--1--3--|
|---3p0-0---0---1p0-0---0--|--0--3--0--3---0---3--1--3--|
|
|   ~~~~        ~~~
|   Q.     +E   Q.     +E     E  E  E  E  +E   E  E  E
|--------------------------|----------------------------|
|-/19-----(19)S16-----(16)S|=15-16S19S16-(16)-15-16S19S=|
|--------------------------|----------------------------|
|--------------------------|----------------------------|
|--------------------------|----------------------------|
|--------------------------|----------------------------|
|
|   ~~~~        ~~~
|   Q.     +E   H             E  E  E  E  +E   E  E  E
|-/14-----(14)S11----------|-10-11S14S11-(11)-10-11S14S=|
|-/15-----(15)S11----------|-10-11S15S11-(11)-10-11S15S=|
|--------------------------|----------------------------|
|--------------------------|----------------------------|
|--------------------------|----------------------------|
|--------------------------|----------------------------|
    Q.     +E   H             E  E  E  E  +E   E  E  E


     D5    EbD5                    F5    D5    F5    D5    Ab5   F5    G5
       PM|       PM----------|            PM          PM
   E E E E E E   E   E        E     E     E     E     E     E     E     E
|--------------------------|-----------------------------------------------||
|--------------------------|-----------------------------------------------||
|--------------------------|-----------------------------------------------||
|--------------------------|-----------------------------------------------||
|--3p0-0-0-1p0---0---0-----|--0-----3-----0-----3-----0-----6-----3-----5--||
|--3p0-0-0-1p0---0---0-----|--0-----3-----0-----3-----0-----6-----3-----5--||
|
|  ~~~
|  H.           +E.      S    S  S  S  S  S  S  S  S  S  S  S  S  S  S  E
|--------------------------|----14-17-14----------14-17-14----------14-17S=||
|-15-----------(15)\---/15-|-16----------16-15-16----------16-15-16--------||
|--------------------------|-----------------------------------------------||
|--------------------------|-----------------------------------------------||
|--------------------------|-----------------------------------------------||
|--------------------------|-----------------------------------------------||
|
|  ~~~
|  H.           +Q            W
|-10-----------(10)\-------|-----------------------------------------------||
|-10-----------(10)\-------|-----------------------------------------------||
|--------------------------|-----------------------------------------------||
|--------------------------|-----------------------------------------------||
|--------------------------|-----------------------------------------------||
|--------------------------|-----------------------------------------------||
   H.           +Q


 Verse 3
  Dm       D°        Dm                                       G5   F5
  Gtrs I, II
   E E E E E E E E     E     E        E       E  E    E       E     E
|------------------|----------------------------------------------------|
|------------------|----------------------------------------------------|
|------------------|----------------------------------------------------|
|------------------|----------------------------------------------------|
|------5-----------|--------------------------5-------------------------|
|--0-3---3-0-6-3-0-|---3-----0--------3----------3----0-------5-----3---|
|
| Gtr IV
|                      |---------3----------|    |-------3-------|
|  W                  +Q        q           q    q       q       q
|-22---------------|-(22)------22----------22---22------22------22------|
|------------------|----------------------------------------------------|
|------------------|----------------------------------------------------|
|------------------|----------------------------------------------------|
|------------------|----------------------------------------------------|
|------------------|----------------------------------------------------|
|
| Gtr V
|  W                  +S   S S     S  S  S    E  S S  S     S E     S S
|-10---------------|-(10)-10------10-10-10------10---10----10------10---|
|-10---------------|-(10)-10------10-10-10------10---10----10------10---|
|------------------|----------------------------------------------------|
|------------------|----------------------------------------------------|
|------------------|----------------------------------------------------|
|------------------|----------------------------------------------------|
   W                  +S   S S     S  S  S    E  S S  S     S E     S S


  Dm                      D°                         Dm                                   G5      F5
   E     E     E     E    E      E    E     E        E    E     E           E    E   E      E     E
|--------------------------------------------------|------------------------------------------------|
|--------------------------------------------------|------------------------------------------------|
|--------------------------------------------------|------------------------------------------------|
|--------------------------------------------------|------------------------------------------------|
|--------------5-----------------------------------|------------------------5-----------------------|
|--0-----3-----------3----0------6----3-----0------|-3----0-----3----------------3---0------5-----3-|
|
|  S  E     S  E     S  S S  S   E    S E        S   E    S   S S  S        E    S E    S  +Q
|-22-------22-------22------22-------22---------22-|-----22-------22pb24========22-----22-(22)------|
|--------------------------------------------------|------------------------------------------------|
|--------------------------------------------------|------------------------------------------------|
|--------------------------------------------------|------------------------------------------------|
|--------------------------------------------------|------------------------------------------------|
|--------------------------------------------------|------------------------------------------------|
|
|                         |---3----|  |---3---|      |--3---|   |------3------|
|  S  S  S  S  S  S  S  S E    E   E  E   E   E      E E    E   E         E   E  S E    S  +S  E.
|----10-10----10-10----10------x---x--x---x---x----|-x-x----x---x---------x---x--x-x----x--(x)-x----|
|----10-10----10-10----10------x---x--x---x---x----|-x-x----x---x---------x---x--x-x----x--(x)-x----|
|--------------------------------------------------|------------------------------------------------|
|--------------------------------------------------|------------------------------------------------|
|--------------------------------------------------|------------------------------------------------|
|--------------------------------------------------|------------------------------------------------|
   S  S  S  S  S  S  S  S E    E   E  E   E   E      E E    E   E         E   E  S E    S  +S  E.
                          |---3----|  |---3---|      |--3---|   |------3------|


  Dm             D°          Dm              G5 F5
  Gtr I
    E    E  E  E E  E  E E    E E  E  E  E E  E  E
|--------------------------|-----------------------|
|--------------------------|-----------------------|
|--------------------------|-----------------------|
|--------------------------|-----------------------|
|----------17--------------|---------17------------|
|---0---15----15-0-18-15-0-|-15-0-15----15-0-17-15-|
|
| Gtr II
|   E    E  E  E E  E  E E    E E  E  E  E E  E  E
|--------------------------|-----------------------|
|--------------------------|-----------------------|
|--------------------------|-----------------------|
|--------------------------|-----------------------|
|-----------5--------------|----------5------------|
|---0----3-----3-0--6--3-0-|--3-0--3-----3-0--5--3-|
|
| Gtr IV
|  +Q       Q    H            W
|-(22)r--------------------|-----------------------|
|--------------------------|-----------------------|
|--------------------------|-----------------------|
|--------------------------|-----------------------|
|--------------------------|-----------------------|
|--------------------------|-----------------------|


  Dm         D°          Dm              G5 F5
  E  E  E  E E  E  E E    E E  E  E  E E  E  E
|----------------------|-----------------------||
|----------------------|-----------------------||
|----------------------|-----------------------||
|----------------------|-----------------------||
|------17--------------|---------17------------||
|-0-15----15-0-18-15-0-|-15-0-15----15-0-17-15-||
|
| E  E  E  E E  E  E E    E E  E  E  E E  E  E
|----------------------|-----------------------||
|----------------------|-----------------------||
|----------------------|-----------------------||
|----------------------|-----------------------||
|-------5--------------|----------5------------||
|-0--3-----3-0--6--3-0-|--3-0--3-----3-0--5--3-||
|
| W                       W
|----------------------|-----------------------||
|----------------------|-----------------------||
|----------------------|-----------------------||
|----------------------|-----------------------||
|----------------------|-----------------------||
|----------------------|-----------------------||


   Pre-Chorus
    D5                    Eb5 D5                    Eb5
    Gtrs I, II
    PM----|     PM----|       PM----|     PM----|
    S S S S E E S S S S E E   S S S S E E S S S S E E
||--------------------------|--------------------------||
||o-------------------------|-------------------------o||
||--------------------------|--------------------------||
||--------------------------|--------------------------||
||o-------------------------|-------------------------o||
||--0-0-0-0-0---0-0-0-0-0h1-|-0-0-0-0-0---0-0-0-0-0h1--||


 Chorus
  F5
  Gtrs I, II
   Q     E  E +H             +H.                +Q
|--------------------------|---------------------------|
|--------------------------|---------------------------|
|--5-----x--5-(5)----------|-(5)----------------(5)S===|
|--3-----x--3-(3)----------|-(3)----------------(3)S===|
|--3-----x--3-(3)----------|-(3)----------------(3)S===|
|--3-----x--3-(3)----------|-(3)----------------(3)S===|
|
| Gtr III
|  E  E  E  E  E   E  E  E    E   E  E  E  E  E  E   E
|-13-13-15----13--15----15-|-----13-15----13-15-13--15-|
|----------13--------13----|-13--------13--------------|
|--------------------------|---------------------------|
|--------------------------|---------------------------|
|--------------------------|---------------------------|
|--------------------------|---------------------------|


  Ab5
   Q     E  E +H             +H.                +Q
|--------------------------|----------------------------|
|--------------------------|----------------------------|
|--8-----x--8-(8)----------|-(8)----------------(8)S====|
|--6-----x--6-(6)----------|-(6)----------------(6)S====|
|--6-----x--6-(6)----------|-(6)----------------(6)S====|
|--6-----x--6-(6)----------|-(6)----------------(6)S====|
|
|  E  E  E  E  E   E  E  E    E   E  E  E  E  E  E   E
|----13-15----13--15----15-|-----13-15----13-15-13--15--|
|-13-------13--------13----|-13--------13---------------|
|--------------------------|----------------------------|
|--------------------------|----------------------------|
|--------------------------|----------------------------|
|--------------------------|----------------------------|


  Eb6add9/CEbsus2/Bb
   Q     E  E +H             +W
|--------------------------|--------------------------|
|--------------------------|--------------------------|
|--3-----x--3-(3)----------|-(3)----------------------|
|--1-----x--1-(1)----------|-(1)----------------------|
|--1-----x--1-(1)----------|-(1)----------------------|
|--1-----x--1-(1)----------|-(1)----------------------|
|
|  E  E  E  E  E   E  E  E    E   E  E  E  E  E  E  E
|----13-15----13--15-13-15-|-13--13-15----13-15-13-15-|
|-13-------13--------------|-----------13-------------|
|--------------------------|--------------------------|
|--------------------------|--------------------------|
|--------------------------|--------------------------|
|--------------------------|--------------------------|


  F5       C5
   Q     E  E +H             +E   E  E  E  E  E  E  E
|--------------------------|---------------------------|
|--------------------------|---------------------------|
|--5-----x--5-(5)----------|-(5)--5--5--5--5--5--5--5--|
|--3-----x--5-(5)----------|-(5)--5--5--5--5--5--5--5--|
|--3-----x--3-(3)----------|-(3)--3--3--3--3--3--3--3--|
|--3-----x-----------------|---------------------------|
|
|  E  E  E  E  E   E  E  E    E   E  E  E  E  E  E  E
|-------15--------15----15-|--------15-------15----15--|
|-13-13----13-13-----13----|-13--13----13-13----13-----|
|--------------------------|---------------------------|
|--------------------------|---------------------------|
|--------------------------|---------------------------|
|--------------------------|---------------------------|


  F5
   Q     E  E +H             +H.                +Q
|--------------------------|---------------------------|
|--------------------------|---------------------------|
|--5-----x--5-(5)----------|-(5)----------------(5)S===|
|--3-----x--3-(3)----------|-(3)----------------(3)S===|
|--3-----x--3-(3)----------|-(3)----------------(3)S===|
|--3-----x--3-(3)----------|-(3)----------------(3)S===|
|
|  E  E  E  E  E   E  E  E    E   E  E  E  E  E  E   E
|----13-15----13--15-13-15-|-13--13-15-13-13-15-13--15-|
|-13-------13--------------|---------------------------|
|--------------------------|---------------------------|
|--------------------------|---------------------------|
|--------------------------|---------------------------|
|--------------------------|---------------------------|


  Ab5
   Q     E  E +H             +H.                +Q
|--------------------------|----------------------------|
|--------------------------|----------------------------|
|--8-----x--8-(8)----------|-(8)----------------(8)-----|
|--6-----x--6-(6)----------|-(6)----------------(6)-----|
|--6-----x--6-(6)----------|-(6)----------------(6)-----|
|--6-----x--6-(6)----------|-(6)----------------(6)-----|
|
|  E  E  E  E  E   E  E  E    E   E  E  E  E  E  E   E
|-13-13-15----13--15-13-15-|-13--13-15----13-15-13--15--|
|----------13--------------|-----------13---------------|
|--------------------------|----------------------------|
|--------------------------|----------------------------|
|--------------------------|----------------------------|
|--------------------------|----------------------------|


  Eb6add9/CEbsus2/Bb
   Q     E  E +H             +W
|--------------------------|--------------------------|
|--------------------------|--------------------------|
|--3-----x--3-(3)----------|-(3)----------------------|
|--1-----x--1-(1)----------|-(1)----------------------|
|--1-----x--1-(1)----------|-(1)----------------------|
|--1-----x--1-(1)----------|-(1)----------------------|
|
|  E  E  E  E  E   E  E  E    E   E  E  E  E  E  E  E
|----13-15----13--15----15-|-----13-15----13-15-13-15-|
|-13-------13--------13----|-13--------13-------------|
|--------------------------|--------------------------|
|--------------------------|--------------------------|
|--------------------------|--------------------------|
|--------------------------|--------------------------|


  F5       C5
   Q     E  E +H             +E   E  E  E  E  E  E  E
|--------------------------|---------------------------|
|--------------------------|---------------------------|
|--5-----x--5-(5)----------|-(5)--5--5--5--5--5--5--5--|
|--3-----x--5-(5)----------|-(5)--5--5--5--5--5--5--5--|
|--3-----x--3-(3)----------|-(3)--3--3--3--3--3--3--3--|
|--3-----x-----------------|---------------------------|
|
|  E  E  E  E  E   E  E  E    E   E  E  E  E  E  E  E
|-------15--------15----15-|--------15-------15----15--|
|-13-13----13-13-----13----|-13--13----13-13----13-----|
|--------------------------|---------------------------|
|--------------------------|---------------------------|
|--------------------------|---------------------------|
|--------------------------|---------------------------|


  F5
   Q     E  E +H             +H.                +Q
|--------------------------|---------------------------|
|--------------------------|---------------------------|
|--5-----x--5-(5)----------|-(5)----------------(5)S===|
|--3-----x--3-(3)----------|-(3)----------------(3)S===|
|--3-----x--3-(3)----------|-(3)----------------(3)S===|
|--3-----x--3-(3)----------|-(3)----------------(3)S===|
|
|  E  E  E  E  E   E  E  E    E   E  E  E  E  E  E   E
|-13-13-15----13--15----15-|-13--13-15----13-15-13--15-|
|----------13--------13----|-----------13--------------|
|--------------------------|---------------------------|
|--------------------------|---------------------------|
|--------------------------|---------------------------|
|--------------------------|---------------------------|


  Ab5
   Q     E  E +H             +H.                +Q
|--------------------------|----------------------------|
|--------------------------|----------------------------|
|--8-----x--8-(8)----------|-(8)----------------(8)S====|
|--6-----x--6-(6)----------|-(6)----------------(6)S====|
|--6-----x--6-(6)----------|-(6)----------------(6)S====|
|--6-----x--6-(6)----------|-(6)----------------(6)S====|
|
|  E  E  E  E  E   E  E  E    E   E  E  E  E  E  E   E
|-13-13-15----13--15-13-15-|-13--13-15-13-13-15-13--15--|
|----------13--------------|----------------------------|
|--------------------------|----------------------------|
|--------------------------|----------------------------|
|--------------------------|----------------------------|
|--------------------------|----------------------------|


  Eb6add9/CEbsus2/Bb
   Q     E  E +H             +W
|--------------------------|--------------------------|
|--------------------------|--------------------------|
|--3-----x--3-(3)----------|-(3)----------------------|
|--1-----x--1-(1)----------|-(1)----------------------|
|--1-----x--1-(1)----------|-(1)----------------------|
|--1-----x--1-(1)----------|-(1)----------------------|
|
|  E  E  E  E  E   E  E  E    E   E  E  E  E  E  E  E
|----13-15----13--15----15-|-13--13-15-13-13-15-13-15-|
|-13-------13--------13----|--------------------------|
|--------------------------|--------------------------|
|--------------------------|--------------------------|
|--------------------------|--------------------------|
|--------------------------|--------------------------|


  F5       C5
   Q     E  E +H             +E   E  E  E  E  E  E  E
|--------------------------|---------------------------|
|--------------------------|---------------------------|
|--5-----x--5-(5)----------|-(5)--5--5--5--5--5--5--5--|
|--3-----x--5-(5)----------|-(5)--5--5--5--5--5--5--5--|
|--3-----x--3-(3)----------|-(3)--3--3--3--3--3--3--3--|
|--3-----x-----------------|---------------------------|
|
|  E  E  E  E  E   E  E  E    E   E  E  E  E  E  E  E
|-------15--------15----15-|--------15-------15----15--|
|-13-13----13-13-----13----|-13--13----13-13----13-----|
|--------------------------|---------------------------|
|--------------------------|---------------------------|
|--------------------------|---------------------------|
|--------------------------|---------------------------|


  F5
   Q     E  E +H             +H.                +Q
|--------------------------|---------------------------|
|--------------------------|---------------------------|
|--5-----x--5-(5)----------|-(5)----------------(5)S===|
|--3-----x--3-(3)----------|-(3)----------------(3)S===|
|--3-----x--3-(3)----------|-(3)----------------(3)S===|
|--3-----x--3-(3)----------|-(3)----------------(3)S===|
|
|  E  E  E  E  E   E  E  E    E   E  E  E  E  E  E   E
|----13-15----13--15----15-|-----13-15----13-15-----15-|
|-13-------13--------13----|-13--------13-------13-----|
|--------------------------|---------------------------|
|--------------------------|---------------------------|
|--------------------------|---------------------------|
|--------------------------|---------------------------|


  Ab5
   Q     E  E +H             +H.                +Q
|--------------------------|----------------------------|
|--------------------------|----------------------------|
|--8-----x--8-(8)----------|-(8)----------------(8)S====|
|--6-----x--6-(6)----------|-(6)----------------(6)S====|
|--6-----x--6-(6)----------|-(6)----------------(6)S====|
|--6-----x--6-(6)----------|-(6)----------------(6)S====|
|
|  E  E  E  E  E   E  E  E    E   E  E  E  E  E  E   E
|-13-13-15-13-13--15----15-|-13--13-15----13-15-13--15--|
|--------------------13----|-----------13---------------|
|--------------------------|----------------------------|
|--------------------------|----------------------------|
|--------------------------|----------------------------|
|--------------------------|----------------------------|


  Eb6add9/CEbsus2/Bb
  Gtr I
   Q     E  E +H             +W
|--------------------------|--------------------------|
|--------------------------|--------------------------|
|--3-----x--3-(3)----------|-(3)----------------------|
|--1-----x--1-(1)----------|-(1)----------------------|
|--1-----x--1-(1)----------|-(1)----------------------|
|--1-----x--1-(1)----------|-(1)----------------------|
|
| Gtr II
|  Q     E  E +H             +W
|--------------------------|--------------------------|
|--------------------------|--------------------------|
|--3-----x--3-(3)----------|-(3)----------------------|
|--1-----x--1-(1)----------|-(1)----------------------|
|--1-----x--1-(1)----------|-(1)----------------------|
|--1-----x--1-(1)----------|-(1)----------------------|
|
| Gtr III
|  E  E  E  E  E   E  E  E    E   E  E  E  E  E  E  E
|-13-13-15----13--15-13-15-|-13--13-15----13-15-13-15-|
|----------13--------------|-----------13-------------|
|--------------------------|--------------------------|
|--------------------------|--------------------------|
|--------------------------|--------------------------|
|--------------------------|--------------------------|


  F5       C5
   Q     E  E +H             +E   E  E  E  E  E   E   E
|--------------------------|-----------------------------||
|--------------------------|-----------------------------||
|--5-----x--5-(5)----------|-(5)--5--5--5--5--5---5---5--||
|--3-----x--5-(5)----------|-(5)--5--5--5--5--5---5---5--||
|--3-----x--3-(3)----------|-(3)--3--3--3--3--3---3---3--||
|--3-----x-----------------|-----------------------------||
|
|  Q     E  E +H             +E   E  E  E  E  E   Q
|--------------------------|-----------------------------||
|--------------------------|-----------------------------||
|--5-----x--5-(5)----------|-(5)--5--5--5--5--5----------||
|--3-----x--5-(5)----------|-(5)--5--5--5--5--5----------||
|--3-----x--3-(3)----------|-(3)--3--3--3--3--3----------||
|--3-----x-----------------|--------------------/17\-----||
|
|  E  E  E  E  E   E  E  E    E   E  E  E  E  E   E   E
|-------15--------15----15-|--------15-------15----------||
|-13-13----13-13-----13----|-13--13----13-13-----13--13--||
|--------------------------|-----------------------------||
|--------------------------|-----------------------------||
|--------------------------|-----------------------------||
|--------------------------|-----------------------------||


   Outro
    F5G5F5G5F5D5        AbD5G5D5  F5G5  F5G5F5G5F5D5        AbD5G5D5  F5G5
    Gtrs I, II
                PM----|   PM  PM|                   PM----|   PM  PM|
    E E E E E E E E   E E E E E E E E   E E E E E E E E   E E E E E E E E
||------------------|-----------------|-----------------|-------------------||
||o-----------------|-----------------|-----------------|------------------o||
||------------------|-----------------|-----------------|-------------------||
||------------------|-----------------|-----------------|-------------------||
||o-3h5-3h5-3p0-0-0-|-0-6---5-0-0-3h5-|-3h5-3h5-3p0-0-0-|-0-6---5-0-0-3h5--o||
||--3h5-3h5-3p0-0-0-|-0-6-0-5-0-0-3h5-|-3h5-3h5-3p0-0-0-|-0-6-0-5-0-0-3h5---||


Duration Legend
---------------
W - whole; H - half; Q - quarter; E - 8th; S - 16th; T - 32nd; X - 64th; a - acciaccatura
+ - note tied to previous; . - note dotted; .. - note double dotted
Uncapitalized letters represent notes that are staccato (1/2 duration)
Irregular groupings are notated above the duration line
Duration letters will always appear directly above the note/fret number it represents the
duration for.  Duration letters with no fret number below them represent rests.  Multi-
bar rests are notated in the form Wxn, where n is the number of bars to rest for.  Low
melody durations appear below the staff

Tablature Legend
----------------
 h   - hammer-on
 p   - pull-off
 b   - bend
 pb  - pre-bend
 r   - bend release (if no number after the r, then release immediately)
 /\  - slide into or out of (from/to "nowhere")
 s   - legato slide
 S   - shift slide
  - natural harmonic
[n]  - artificial harmonic
n(n) - tapped harmonic
 ~   - vibrato
 tr  - trill
 T   - tap
 TP  - trem. picking
 PM  - palm muting
\n/  - tremolo bar dip; n = amount to dip
 \n  - tremolo bar down
 n/  - tremolo bar up
/n\  - tremolo bar inverted dip
 =   - hold bend; also acts as connecting device for hammers/pulls
 <>  - volume swell (louder/softer)
 x   - on rhythm slash represents muted slash
 o   - on rhythm slash represents single note slash

Misc Legend
-----------
 |  - bar
||  - double bar
||o - repeat start
o|| - repeat end
*|  - double bar (ending)
 :  - bar (freetime)
 $  - Segno
 &  - Coda
Tempo markers -  = BPM(8/16=s8/s16), where s8 = swing 8ths, s16 = swing 16ths


***************************************************************************************
* Generated using Power Tab Editor by Brad Larsen - http://powertab.guitarnetwork.org *
***************************************************************************************
comments
We did not receive enough feedback on this tab! Please rate:
print report bad tab
1 2 3 4 5
1 comment total.
0 reply
slipknot836 wrote on January 23 2012, 09:35 am

Nice tab dude, 5*'s ;D

I want to post or [tab]
guest
You may want to rate the tab now too:
select rating
Please do not post tabs as comments. Select "correction" instead!