Oops, an error
Loading. Please wait.

Stone Sour Tab

17,450 views 21 this week
3 commentsread comments
1 2 3 4 5
accurate
x 9
add to favorites launch autoscroll
font size
0
reset
Autoscroll
+/-
esc
set tempo
stop
Contributor
WARNING: You are trying to view
                                    content from Ultimate-Guitar.com
                                    in an unauthorized application,
                                    which is prohibited.

                                    Please use an official Ultimate
                                    Guitar Tabs application for iPhone,
                                    iPad or Android to access legitimate
                                    chords, guitar, bass, and drum tabs
                                    from Ultimate-Guitar.com database.

                                    Type "ultimate guitar tabs" in Apple
                                    App Store's or Android Market's
                                    search to find the application.
Band- Stone Sour
Album- Stone Sour

1.GET INSIDE

Intro:

|-------------------------------------------------|
|-------------------------------------------------|
|-------------------------------------------------|    X4
|-------------------------------------------------|
|-------------------------------------------------|
|-3-2-1-0-0-0-3-2-1-0-0-0-3-2-1-0-0-0-3-2-1-0-3-6-|

|------------------------------------------------------------|
|------------------------------------------------------------|
|------------------------------------------------------------|  X2
|-0--0-0-0--6--0--0-0-0-1-0-1-0--0--0-0-0--6--0--0-0-0-3-6-3-|
|-0--0-0-0--6--0--0-0-0-1-0-1-0--0--0-0-0--6--0--0-0-0-3-6---|
|-0--0-0-0--6--0--0-0-0-1-0-1-0--0--0-0-0--6--0--0-0-0-3-6---|
    |-pm-|                         |-pm-|
Verse:

|----------------------------------------------------------------------|
|----------------------------------------------------------------------|
|----------------------------------------------------------------------|
|-0-0---0-0-0-0----0-0---0-1--4--0-0---0-0-0-0----0-0--0-0-6-5---------|   X2
|-0-0---0-0-0-0----0-0---0-1--4--0-0---0-0-0-0----0-0--0-0-6-5-6-5-----|
|-0-0---0-0-0-0----0-0---0-1--4--0-0---0-0-0-0----0-0--0-0-6-5---------|
        |-------pm---|                 |------pm-----------------------|
Pre-chorus:

|----------------------------------------------------------------------------|
|----------------------------------------------------------------------------|
|----------------------------------------------------------------------------|
|-7--6--7--6-4-6--7--6----7-----5-7------7--6--7--6-4-6--7--6--6-5-----------|
|-5--4--5--4-3-4--5--4--5---7-5-----7-5--5--4--5--4-3-4--5--4----------6-5-0-|
|------------------------------------------------------------------6-5-------|

Chorus:

|---------------------------------------------------------|
|---------------------------------------------------------|
|---------------------------------------------------------|       X2
|-3--5-0--3-0-6-5-3-0-3-5-0-0-3--5-0--3-0-6-5-3-0-3-5-0-0-|
|-3--5-0--3-0-6-5-3-0-3-5-0-0-3--5-0--3-0-6-5-3-0-3-5-0-0-|
|-3--5-0--3-0-6-5-3-0-3-5-0-0-3--5-0--3-0-6-5-3-0-3-5-0-0-|

Bridge:

|----------------------------------|
|----------------------------------|
|----------------------------------|
|-5-6-5-0-1-2-3-0-5-4-5-0-1-2-3-0--|
|-5-6-5-0-1-2-3-0-5-4-5-0-1-2-3-0--|
|-5-6-5-0-1-2-3-0-5-4-5-0-1-2-3-0--|
  |--------------pm----------------|

|---------------------------------|
|---------------------------------|
|---------------------------------|
|-5-6-5-0-1-2-3-0-5-4-5-0-1-2-3-0-|
|-5-6-5-0-1-2-3-0-5-4-5-0-1-2-3-0-|
|-5-6-5-0-1-2-3-0-5-4-5-0-1-2-3-0-|

Solo:

|--------------14--17-14----------17-14-----------------------------------------|
|-----------15-----------15-------------15--------------------------------------|
|--14----16-----------------16-14----------16-14---16-----------------14--------|
|-------------------------------------------------------------14--16------16----|
|-------------------------------------------------------------------------------|
|-------------------------------------------------------------------------------|

|-------------------------------------------------------------------------------|
|-------------------------------------------------------------------------------|
|-------------------------------------------------------------------------------|
|---------------------------S-----S--------------------16----18-----------------|
|-----------14----14----14----19----16----16----16------------------------------|
|-------------------------------------------------------------------------------|

|
|--------------------------------------------14-16-17-16-14-------------------------|
|--14----------------14----------------14-16----------------16-14----------------14-|
|-----18-16-15-16-18----18-16-15-16-18----------------------------18-16-15-16-18----|
|-----------------------------------------------------------------------------------|
|-----------------------------------------------------------------------------------|

|-----------------------------------|
|----------------14-----------------|
|-18-16-15-16-18----18-16-14-16-18--|
|-----------------------------------|
|-----------------------------------|
|-----------------------------------|

Are you ready for this bit?

|--------------14-16-17-16-14------------------------------------------------------|
|------14-16-17-----------------------------14-16-17---16-14-----------------------|
|-14-16-----------------------16-14-13-14-16------------------------------13-15-17-|
|-----------------------------------------------------------16-14-13-14-16---------|
|----------------------------------------------------------------------------------|
|----------------------------------------------------------------------------------|

|----------14-16-17-20-(21)\--|
|-14-16-17--------------------|
|-----------------------------|
|-----------------------------|
|-----------------------------|
|-----------------------------|

2.ORCHIDS

intro-
e|------------------------------------------------------------------|
b|------------------------------------------------------------------|
g|------------------------------------------------------------------|
d|------------------------------------------------------------------|
a|------------2-2-3-2---------3-3-5-3-------------------------------|
e|-----3-2-0----------3-2-0-----------------------------------------|
b|------------------------------------------------------------------|

main riff/verse
e|-------------------------------------------------------------------------|
b|-------------------------------------------------------------------------|
g|-------------------------------------------------------------------------|
d|-------------------------------------------------------------------------|
a|-2-2-2-2---2-2-2---2-2-2-2--2-2-2---2-2-2-2---2-2-2--2-2-2-2------2-3p2--|
e|-2-2-2-2---2-2-2---2-2-2-2--2-2-2---2-2-2-2---2-2-2--2-2-2-2--3p2--------|
b|-0-0-0-0---0-0-0---0-0-0-0--0-0-0---0-0-0-0---0-0-0--0-0-0-0-------------|

pre-chorus
e|--------------------------------------------------------------------------|
b|--------------------------------------------------------------------------|
g|--------------------------------------------------------------------------|
d|----4-2-5-7-4-2-5------4-2-5-7-4-2-5--------------------------------------|
a|----2-0-3-5-2-0-3------2-0-3-5-2-0-3--------------------------------------|
e|--------------------------------------------------------------------------|
b|--------------------------------------------------------------------------|

chorus
e|------------------------------------------------------------------------|
b|------------------------------------------------------------------------|
g|------------------------------------------------------------------------|
d|------------------------------------------------------------------------|
a|---4-2-4-2-5-7---4-2-4-2-5-7---4-2-4-2-5-7---8-7-5-3--------------------|
e|---2-0-2-0-3-5---2-0-2-0-3-5---2-0-2-0-3-5---6-5-3-1--------------------|
b|------------------------------------------------------------------------|

3.COLD READER

Intro
|-----------------------------------------|
|-----------------------------------------|
|-----------------------------------------| x4
|-0-0-0-0-3-3-3-3-2-2-2/3-3-3-1-1-1-1-2/3-|
|-0-0-0-0-3-3-3-3-2-2-2/3-3-3-1-1-1-1-2/3-|
|-0-0-0-0-3-3-3-3-2-2-2/3-3-3-1-1-1-1-2/3-|


Verse
|-----------------------------------------------------|
|-----------------------------------------------------|
|-----------------------------------------------------| x4
|-0-0-0-0--3-3-3-3--2-2-2-2-3-3-3-3--1-1-1-1--2-3-3-3-|
|-0-0-0-0--3-3-3-3--2-2-2-2-3-3-3-3--1-1-1-1--2-3-3-3-|
|-0-0-0-0--3-3-3-3--2-2-2-2-3-3-3-3--1-1-1-1--2-3-3-3-|
PM- - - -  - - - -  - - - - - - - -  - - - -  - - - -


Pre chorus
|------------|
|4-4-4-4-4-4-|
|------------|
|1-1-1-1-1-1-|
|------------|
|------------|


Chorus
|--------------|
|--------------|
|--------------| x8
|-2-3-2------3-|
|-2-3-2------3-|
|-2-3-2-2^-1-3-|

|-----------------------------------------------------|
|-----------------------------------------------------|
|-----------------------------------------------------| x2
|-0-0-0-0--3-3-3-3--2-2-2-2-3-3-3-3--1-1-1-1--2-3-3-3-|
|-0-0-0-0--3-3-3-3--2-2-2-2-3-3-3-3--1-1-1-1--2-3-3-3-|
|-0-0-0-0--3-3-3-3--2-2-2-2-3-3-3-3--1-1-1-1--2-3-3-3-|


Verse
|-----------------------------------------------------|
|-----------------------------------------------------|
|-----------------------------------------------------| x4
|-0-0-0-0--3-3-3-3--2-2-2-2-3-3-3-3--1-1-1-1--2-3-3-3-|
|-0-0-0-0--3-3-3-3--2-2-2-2-3-3-3-3--1-1-1-1--2-3-3-3-|
|-0-0-0-0--3-3-3-3--2-2-2-2-3-3-3-3--1-1-1-1--2-3-3-3-|
PM- - - -  - - - -  - - - - - - - -  - - - -  - - - -


Pre chorus
|------------|
|4-4-4-4-4-4-|
|------------|
|1-1-1-1-1-1-|
|------------|
|------------|


Chorus
|--------------|
|--------------|
|--------------|x16
|-2-3-2------3-|
|-2-3-2------3-|
|-2-3-2-2^-1-3-|


Verse
|-----------------------------------------------------|
|-----------------------------------------------------|
|-----------------------------------------------------| x4
|-0-0-0-0--3-3-3-3--2-2-2-2-3-3-3-3--1-1-1-1--2-3-3-3-|
|-0-0-0-0--3-3-3-3--2-2-2-2-3-3-3-3--1-1-1-1--2-3-3-3-|
|-0-0-0-0--3-3-3-3--2-2-2-2-3-3-3-3--1-1-1-1--2-3-3-3-|
PM- - - -  - - - -  - - - - - - - -  - - - -  - - - -


|------------|
|4-4-4-4-4-4-|
|------------|
|1-1-1-1-1-1-|
|------------|
|------------|


Outro
|--------------|
|--------------|
|--------------| x16
|-2-3-2------3-|
|-2-3-2------3-|
|-2-3-2-2^-1-3-|

4.BLOTTER

riff 1:
|------------------------------------------------------------|
|------------------------------------------------------------|
|------------------7-----------------------------5-----------|
|-2-0-2-5-4-2-0-2--7--2--4/5/4--2-0-2-4-3-2-0-2--5--2--4/5-5-|
|-2-0-2-5-4-2-0-2--5--2--4/5/4--2-0-2-4-3-2-0-2--3--2--4/5-5-|
|-2-0-2-5-4-2-0-2-----2--4/5/4--2-0-2-4-3-2-0-2-----2--4/5-5-|


riff 2
part 1:
|----------------------------------------|
|----------------------------------------|
|----------------------------------------|
|-------5------------5-------------------|
|-------3------------3---------3*-3*-3*--|
|-3-2-0----3-2-3-2-0----3-0-2------------|
 |_PM__|  |___PM____|  |_PM__|

part 2:
|----------------------------------|
|----------------------------------|
|----------------------------------|
|-------5------------5-------------|
|-------3------------3-------2--2--|
|-3-2-0----3-2-3-2-0----3-0--2--2--|
 |_PM__|  |___PM____|  |_PM_|

riff 3:
|----------------------------------------|
|----------------------------------------|
|------------------------------5----7----|
|-2------0-2-3------2------0-2-5----7----|
|-2------0-2-3------2------0-2-3----5----|
|-2------0-2-3------2------0-2-3----5----|

riff 4:
|-----------------------------------------|
|-----------------------------------------|
|-----------------------------------------|
|-3-3-3-3-3-3-3-3-3-3-2-2-2-2-2-2-2-2-2-2-|
|-3-3-3-3-3-3-3-3-3-3-2-2-2-2-2-2-2-2-2-2-|
|-3-3-3-3-3-3-3-3-3-3-2-2-2-2-2-2-2-2-2-2-|

riff 5:
|----------------------------------|
|----------------------------------|
|----------------------------------|
|-5-2---0-2---5-2---0-2--2/6-6-6---|
|-5-2---0-2---5-2---0-2--2/6-6-6---|
|-5-2---0-2---5-2---0-2--2/6-6-6---|

|----------------------------------|
|----------------------------------|
|----------------------------------|
|-5-2---0-2---5-2---0-2--2/3---3---|
|-5-2---0-2---5-2---0-2--2/3---3---|
|-5-2---0-2---5-2---0-2--2/3---3---|

riff 7
part 1:
|-----------------------------|
|-12b---------------r---------|
|-----------------------------|
|-----------------------------|
|-----------------------------|
|-----------------------------|

part 2:
|---------------------------------------------------------------|
|---------------------------------------------------------------|
|---------------------------------------------------------------|
|---------------------------------------------------------------|
|-2-2-2-0-2-2-2-0-2-2-2-0-3-4-3-0-2-2-2-0-2-2-2-0-2-2-2-0-2-3-0-|
|-2-2-2-0-2-2-2-0-2-2-2-0-3-4-3-0-2-2-2-0-2-2-2-0-2-2-2-0-2-3-0-|
 |_______________________________PM____________________________|

5.CHOOSE

Intro
|-------------------------------|
|-------------------------------|
|-------------------------------| x2
|-------------------------------|
|-------------------------------|
|-12-0-0-13-0-0-0-0-0-0-0-0-0-0-|
PM          - - - - - - - - - -


Verse - Play 3 times
|-------------------------------------|     |----|
|-------------------------------------|     |----|
|-------------------------------------| x4  |----|x1
|-----0-0-0-0-0-0-0-0-0-0-------------|     |----|
|-----0-0-0-0-0-0-0-0-0-0-------------|     |----|
|-6p0-0-0-0-0-0-0-0-0-0-0-6-0-6p0-6p0-|     |-6^-|
PM    - - - - - - - - - -


Pre-chorus
|--------------|
|--------------|
|-7-7----------| x4
|-7-7--6-6-6-6-|
|-5-5--6-6-6-6-|
|------6-6-6-6-|


Chorus
|-------------------------|      |---------|
|-------------------------|      |---------|
|-------------------------| x2   |---------| x1
|-2-2-2-2-2/3-3-3-2-3-5-3-|      |-3/5-5/7-|
|-2-2-2-2-2/3-3-3-2-3-5-3-|      |-3/5-5/7-|
|-2-2-2-2-2/3-3-3-2-3-5-3-|      |-3/5-5/7-|
PM                - - - -


Verse - Play 3 times
|-------------------------------------|     |----|
|-------------------------------------|     |----|
|-------------------------------------| x4  |----|x1
|-----0-0-0-0-0-0-0-0-0-0-------------|     |----|
|-----0-0-0-0-0-0-0-0-0-0-------------|     |----|
|-6p0-0-0-0-0-0-0-0-0-0-0-6-0-6p0-6p0-|     |-6^-|
PM    - - - - - - - - - -


Pre-chorus
|--------------|
|--------------|
|-7-7----------| x4
|-7-7--6-6-6-6-|
|-5-5--6-6-6-6-|
|------6-6-6-6-|


Chorus
|-------------------------|      |---------|
|-------------------------|      |---------|
|-------------------------| x2   |---------| x1
|-2-2-2-2-2/3-3-3-2-3-5-3-|      |-3/5-5/7-|
|-2-2-2-2-2/3-3-3-2-3-5-3-|      |-3/5-5/7-|
|-2-2-2-2-2/3-3-3-2-3-5-3-|      |-3/5-5/7-|
PM                - - - -


Bridge
|-------------------------|
|-------------------------|
|-------------------------| x4
|-2-3-2-0-2-0-2-0-2-0-2-0-|
|-2-3-2-0-2-0-2-0-2-0-2-0-|
|-2-3-2-0-2-0-2-0-2-0-2-0-|

Verse - Play 3 times
|-------------------------------------|     |----|
|-------------------------------------|     |----|
|-------------------------------------| x4  |----|x1
|-----0-0-0-0-0-0-0-0-0-0-------------|     |----|
|-----0-0-0-0-0-0-0-0-0-0-------------|     |----|
|-6p0-0-0-0-0-0-0-0-0-0-0-6-0-6p0-6p0-|     |-6^-|
PM    - - - - - - - - - -


Pre-chorus
|--------------|
|--------------|
|-7-7----------| x4
|-7-7--6-6-6-6-|
|-5-5--6-6-6-6-|
|------6-6-6-6-|


Chorus
|-------------------------|      |---------|
|-------------------------|      |---------|
|-------------------------| x2   |---------| x1
|-2-2-2-2-2/3-3-3-2-3-5-3-|      |-3/5-5/7-|
|-2-2-2-2-2/3-3-3-2-3-5-3-|      |-3/5-5/7-|
|-2-2-2-2-2/3-3-3-2-3-5-3-|      |-3/5-5/7-|
PM                - - - -


Bridge
|-------------------------|
|-------------------------|
|-------------------------| x4
|-2-3-2-0-2-0-2-0-2-0-2-0-|
|-2-3-2-0-2-0-2-0-2-0-2-0-|
|-2-3-2-0-2-0-2-0-2-0-2-0-|

Verse - Play 2 times
|-------------------------------------|     |----|
|-------------------------------------|     |----|
|-------------------------------------| x4  |----|x1
|-----0-0-0-0-0-0-0-0-0-0-------------|     |----|
|-----0-0-0-0-0-0-0-0-0-0-------------|     |----|
|-6p0-0-0-0-0-0-0-0-0-0-0-6-0-6p0-6p0-|     |-6^-|
PM    - - - - - - - - - -

6.MONOLITH

Riff A
Josh (0:08)     (0:27)
----------------|------------------17----------|
-----3----------|--------15--------------------|
-2h3---3-2------|-/14h15----15-14^----14-14^---|
---------0------|------------------------------|
----------------|------------------------------|
----------------|------------------------------|

Riff A
Jim (0:20)
-----------------|
-----------------|
-----------------|
-----------------|
-12-12--12-12----|
-12-12--12-12----|

Verse
Josh & Jim (0:30)
--------------------|---------------------|
--------------------|---------------------|
--------------------|---------------------|
--------------------|-7-7-7-7-8-8-8-8-----|
--------------------|-7-7-7-7-8-8-8-8-----|
-7-7-7-7-8-8-8-8----|-7-7-7-7-8-8-8-8-----|
 * * * * * * * *

Chorus
Jim (0:58)
-------------------|
-------------------|
-------------------|
-12-8-7-5--3---7---|
-12-8-7-5--3---7---|
-12-8-7-5--3---7---|

Chorus
Josh (1:01)
--------------------------|
--------------------------|
-7-10-12-14-14/15\14-9----|
-x--x--x--x--x/-x\-x-x----|
-5--8-10-12-12/13\12-7----|
--------------------------|

Fill ( 16x )
Josh & Jim (1:18)
--------|
--------|
--------|
-0-0-0--|
-0-0-0--|
-0-0-0--|
 * * *

Verse
Josh & Jim (1:30)
--------------------|---------------------|
--------------------|---------------------|
--------------------|---------------------|
--------------------|-7-7-7-7-8-8-8-8-----|
--------------------|-7-7-7-7-8-8-8-8-----|
-7-7-7-7-8-8-8-8----|-7-7-7-7-8-8-8-8-----|
 * * * * * * * *

Chorus
Jim (1:53)
-------------------|
-------------------|
-------------------|
-12-8-7-5--3---7---|
-12-8-7-5--3---7---|
-12-8-7-5--3---7---|

Chorus
Josh (2:00)
--------------------------|
--------------------------|
-7-10-12-14-14/15\14-9----|
-x--x--x--x--x/-x\-x-x----|
-5--8-10-12-12/13\12-7----|
--------------------------|

Fill ( 16x )
Josh & Jim (2:16)
--------|
--------|
--------|
-0-0-0--|
-0-0-0--|
-0-0-0--|
 * * *

Solo
Josh (2:27)
                Trill with slight differences
C#------------------------------------------------17p-15p-12---12< 12< 10-----------|
G#--10--11--10------------------10--11--10------------------------------------------|
E---------------9/12----9-10-9-----------------9------------------------------------|
B-----------------------------------------------------------------------------------|
F#----------------------------------------------------------------------------------|
B-----------------------------------------------------------------------------------|

C#--10-10-10-8-10-8---------------------------------17-15-13-12-10-12-12/13---------|
G#------------------------11-10-11-11-11-10-10--------------------------------------|
E-----------------------------------------------------------------------------------|
B-----------------------------------------------------------------------------------|
F#----------------------------------------------------------------------------------|
B-----------------------------------------------------------------------------------|

C#-----------------------------------------------------------23-23-22~---------------|
G#-----------------------------------------------------------------------------------|
E------------------------------------------------------------------------------------|
B---------(trill with slight palm mute)----------------------------------------------|
F#--10-12-13-12-13-15-13-15-17-15-17-18----------------------------------------------|
B------------------------------------------------------------------------------------|
(Repeat all the way up)

Chorus
Jim (2:51)
-------------------|
-------------------|
-------------------|
-12-8-7-5--3---7---|
-12-8-7-5--3---7---|
-12-8-7-5--3---7---|

Chorus
Josh (2:57)
--------------------------|
--------------------------|
-7-10-12-14-14/15\14-9----|
-x--x--x--x--x/-x\-x-x----|
-5--8-10-12-12/13\12-7----|
--------------------------|

Ending
Jim (3:14)
-------------------------------------------------|
-------------------------------------------------|
-------------------------------------------------|
----x-x-x----x-x-x----x-x-x----x-x-x-------------|
----x-x-x----x-x-x----x-x-x----x-x-x-------------|
-12-x-x-x-12-x-x-x-12-x-x-x-12-x-x-x-12--10-10---|

Ending
Josh (3:28)
-------------------------------------------------------|
-------------------------------------------------------|
-9--9--10------9--9--10------9--9--10------9--9--10----|
-x--x---x------x--x---x------x--x---x------x--x---x----|
-7--7---8------7--7---8------7--7---8------7--7---8----|
-------------------------------------------------------|

Jim (3:38)              Josh (pick scrapes)
------------------|------------------|
------------------|------------------|
------------------|------------------|
---12\\\\---------|------------------|
---12\\\\---------|------------------|
---12\\\\---------|-/////\\\\///\//--|

7.INHALE

ntro:
Riff A:
|--------------------------------------|
|-----------------------------------*--|
|--------------------------------------|
|--0-7-6------0-7-6------0-7-6---------|
|--------7-8--------7-8--------7-8--*--|
|--------------------------------------|

Riff B:
|---------------------------------------|
|---------------------------*-----------|
|---------------------------------------|
|--0-7-6&#65533;-2-3---0-7-6--2-3-------|
|--0-7-6&#65533;-2-3---0-7-6--2-3--*----|
|--0-7-6--2-3---0-7-6--2-3--------------|

Verse:
Rhythm Fig. 1:
|-------------------------------------------------------------|
|-------------------------------------------------------------|
|--7-7-7--7-7-7-----------------7-7-7--7-7-7------------------|
|--7-7-7--7-7-7--3-3-3----------7-7-7--7-7-7--3-3-3--5-5-5-5--|
|--5-5-5--5-5-5--------7-7-7-7--5-5-5--5-5-5------------------|
|-------------------------------------------------------------|

|-----------------------------------|
|-----------------------------------|
|--7-7-7--7-7-7----------------x-x--|
|--7-7-7--7-7-7--3-3-3---------x-x--|
|--5-5-5--5-5-5--------7-7-7-7-x-x--|
|-----------------------------------|

1. Come one and all and see the broken man, talking to himself
He sits and waits for something better, he&#65533;ll never find it here
The people touch his hair and pinch his cheek; he can&#65533;t even feel it.

Rhythm figure 2:
|---------------------------------------|
|------------------------------------*--|
|---------------------------------------|
|--5-5-5-5-5-5-5-5--5-5-5-5-5-5-5-5-----|
|--5-5-5-5-5-5-5-5--5-5-5-5-5-5-5-5--*--|
|--5-5-5-5-5-5-5-5--5-5-5-5-5-5-5-5-----|
P.M. - - - - - - -  - - - - - - - -

There it goes again, he&#65533;s listening to someone
He hears the bitter laughter
All he wants to know is...


Chorus: Riff A

Why- Does any of it even matter? ( I can&#65533;t take it anymore)
You&#65533;ve gotta try- the inhale makes the exhale so much better

Verse: Rhythm fig. 1

2. He wipes his hands on anything in reach he never feels clean
He shakes at night because his nerve is gone, every muscle hurts
Come on and all and see what happened&#65533;that broken man is me

Rhythm figure 2:

There it goes again, I can hear it louder
It doesn&#65533;t fell good any more
All I want to know is

Chorus 2: Riff A w/ Rhythm fill 1

Why- Does any of it even matter? (I can&#65533;t take it anymore)
You&#65533;ve gotta try- the inhale makes the exhale so much better

Rhythm fill 1:
|------------------|
|------------------|
|------------------|
|-0-----------(0)--|
|-0-----------(0)--|
|-0-----------(0)--|


Bridge:
|--------------------------------|
|--*--------------------------*--|
|--------------------------------|
|-----8-8-8---10-10-10-10--5-----|
|--*--8-8-8---10-10-10-10--5--*--|
|-----8-8-8---10-10-10-10--5-----|

NOW I KNOW I DISAPPEAR!
I CAN&#65533;T FIND MY WAY OUT OF HERE!
EVERYTHING IS FADING ON ME


|-----------------------|
|-----------------------|
|-----------------------|
|--5-5-5-5-5-5-5-5-5-5--|
|--5-5-5-5-5-5-5-5-5-5--|
|--5-5-5-5-5-5-5-5-5-5--|
P.M. - - - - - - - - -
SOMEONE TELL ME&#65533; Someone tell me&#65533;

Band tacit:
Someone-tell me

Chorus: Riff A

Why- Does any of it even matter? (I can&#65533;t take it anymore)
You&#65533;ve gotta try- the inhale makes the exhale so much better

Outro:
|-----------------------------|-----------------------------|
|--------------------------*--|-----------------------------|
|-----------------------------|-----------------------------|
|--0-7-6--2-3--0-7-6--2-3-----|--0------------(0)-----------|
|--0-7-6--2-3--0-7-6--2-3--*--|--0------------(0)-----------|
|--0-7-6&#65533;-2-3--0-7-6--2-3-----|--0------------(0)----|

8.BOTHER

[Intro]
e|--6---6-4--(---------------4-2---)---------------------------------------|
B|--6---6-4--(-4h5p4---------6-2---)---------------------------------------|
G|--6h8-8-6--(--------6-4----6-4---)---------------------------------------|
D|--6h8-8-6--(------------6--6-4---)---------------------------------------|
A|--6---6-4--(---------------4-2---)---------------------------------------|
E|--6---6-4--(---------------4-2---)---------------------------------------|
part in brackets reapeat over 3 times

[Verse]
e|--4-2----4-2------------4-2------------------4-2------4-2----------------|
B|--6-4----6-4------------6-4--4h5p4-----------6-4------6-4----------------|
G|--6-4----6-4------------6-4---------6p4------6-4------6-4----------------|
D|--6-4----6-4--66666666--6-4--------------6---6-4------6-4----------------|
A|--4-2----4-2--66666666--4-2------------------4-2------4-2----------------|
E|--4-2----4-2--44444444--4-2------------------4-2------4-2----------------|


[Pre-Chorus]
e|-------------------------------------------------------------------------|
B|-------------------------------------------------------------------------|
G|-----------444-----------------------------------------------------------|
D|-44444444--444--4444-----------------------------------------------------|
A|-44444444--222--4444-----------------------------------------------------|
E|-22222222-------2222-----------------------------------------------------|
Masarcists to which..........

[Chorus]
e|-4-4----2----4------------4-4----2---------------------------------------|
B|-6-6----4----6------------6-6----4---------------------------------------|
G|-6-6----4----6------------6-6----4------------444------------------------|
D|-6-6----4----6---66666666-6-6----4---44444444-444-4444-------------------|
A|-4-4----2----4---66666666-4-4----2---44444444-222-4444-------------------|
E|-4-4----2----4---44444444-4-4----2---22222222-----2222-------------------|


[Interlude]
e|--4-2--------------------------------------------------------------------|
B|--6-4--4h5p4-------------------------------------------------------------|
G|--6-4---------6-4--------------------------------------------------------|
D|--6-4-------------6------------------------------------------------------|
A|--4-2--------------------------------------------------------------------|
E|--4-2--------------------------------------------------------------------|
repeat 3 times

[Solo]
e|-------------------------------------------------------------------------|
B|--9\7-6-7b--------6/7\6-------7--------7-------9b-7-7-9----7-9p7---7h9---|
G|------------6/8-----------6-8---8--6-8---8--------------8b------10-----8-|
D|-------------------------------------------------------------------------|
A|-------------------------------------------------------------------------|
E|-------------------------------------------------------------------------|

9.BLUE STUDY

Opening/Chorus/Main Riff
|--------------------------------------------------------------------|
|-------------------------------------------------------3-3-3---3-3--|
|--*-*---2h4---4--4--4-----4-4-4----4-4-4h5------5-5-5--x-x-x---x-x--|
|--2-2---2-----2--2--2-----2-2-2----2-2-2--------2-2-2--2-2-2---2-2--|
|--------------------------------------------------------------------|
|--------------------------------------------------------------------|
pm......


Verse:
Use partial pinch harmonics and pinch harmonics depending on how it is played
|-----------------------------------------------------------------------|
|-----------------------------------------------------------------------|
|---------------------------------------------------9---10--7--9--------|
|--7--9--10---9------------------7--9--10--9----------------------------|
|------------------7--8---5---7-----------------------------------------|
|-----------------------------------------------------------------------|


Heavy Riff/Chorus
|---------------------------------------------------------------------------|
|---------------------------------------------------------------------------|
|---------------------------------------------------------------------------|
|----8-----5-----7-----2---2------------------------------------------------|
|----8-----5-----7-----2---2------------------------------------------------|
|----8-----5-----7-----2---2--2-3-2-0---------------------------------------|
                            pm........


|--------------------------------------------------------------------|
|---~5----~5-----~5------~5------~5------~5--------------------------|
|--------------------------------------------------------------------|
|---~2----~2-----~2------~2------~2------~2--------------------------|
|--------------------------------------------------------------------|
|--------2------2-------2--------2-------2---------------------------|

|------------------------------|  Repeat this at the end
|---5--3--5--3--6--5--3--------| a bunch of times
|---4--2--4--2--5--4--2--------|
|---2--0--2--0--3--2--0--------|
|------------------------------|
|------------------------------|
                Bend this upward and then back down again
|----------------------------------------------------------------------|
|------------------5b-----------5--------------------------------------|
|------------------4b-----------4--------------------------------------|
|---2--2--2--------2b-----------2--------------------------------------|
|---2--2--2---------------------2--------------------------------------|
|---2--2--2---------------------2--------------------------------------|
pm................

10.TAKE A NUMBER

Intro
|------------------------------------------------|      |-------|
|------------------------------------------------|      |-------|
|-9/11-------9/11-----7----9/11-------9/11-----7-| x2   |-14-16-| x1
|---------------------7------------------------7-|      |-------|
|-7/9--------7/9------5----7/9--------7/9------5-|      |-12-14-|
|------5-0-0------5-0-----------5-0-0------5-0---|      |-------|


Verse: Bass Only


Let's go!
|---------------|      |---------------|
|---------------|      |---------------|
|-9-9-9-9-9-9-7-| x3   |---------------| x1
|-9-9-9-9-9-9-7-|      |-7-7-7-7-7-7-5-|
|-7-7-7-7-7-7-5-|      |-7-7-7-7-7-7-5-|
|---------------|      |-7-7-7-7-7-7-5-|


|----------------------|     |---------------|
|----------------------|     |---------------|
|-12-12-12-12-12-12-11-| x3  |---------------| x1
|----------------------|     |-7-7-7-7-7-7-5-|
|-10-10-10-10-10-10--9-|     |-7-7-7-7-7-7-5-|
|----------------------|     |-7-7-7-7-7-7-5-|


|----------------------------------------------------|
|-------------------------5*-5*--5*-5*--5*-5*--5*-5*-|
|-------------5*-5*-5*-5*----------------------------| x1
|-------5*-5*----------------------------------------|
|-5*-5*----------------------------------------------|
|----------------------------------------------------|


Verse: Bass Only


|---------------|     |---------------|      |----------------------|    |---------------|
|---------------|     |---------------|      |----------------------|    |---------------|
|-9-9-9-9-9-9-7-| x3  |---------------| x1   |-12-12-12-12-12-12-11-| x3 |---------------| x1
|-9-9-9-9-9-9-7-|     |-7-7-7-7-7-7-5-|      |----------------------|    |-7-7-7-7-7-7-5-|
|-7-7-7-7-7-7-5-|     |-7-7-7-7-7-7-5-|      |-10-10-10-10-10-10--9-|    |-7-7-7-7-7-7-5-|
|---------------|     |-7-7-7-7-7-7-5-|      |----------------------|    |-7-7-7-7-7-7-5-|


|------------------------------------------------|
|------------------------------------------------|
|-9/11-------9/11-----7----9/11-------9/11-----7-| x2
|---------------------7------------------------7-|
|-7/9--------7/9------5----7/9--------7/9------5-|
|------5-0-0------5-0-----------5-0-0------5-0---|


|---------------|     |---------------|      |----------------------|    |---------------|
|---------------|     |---------------|      |----------------------|    |---------------|
|-9-9-9-9-9-9-7-| x3  |---------------| x1   |-12-12-12-12-12-12-11-| x3 |---------------| x1
|-9-9-9-9-9-9-7-|     |-7-7-7-7-7-7-5-|      |----------------------|    |-7-7-7-7-7-7-5-|
|-7-7-7-7-7-7-5-|     |-7-7-7-7-7-7-5-|      |-10-10-10-10-10-10--9-|    |-7-7-7-7-7-7-5-|
|---------------|     |-7-7-7-7-7-7-5-|      |----------------------|    |-7-7-7-7-7-7-5-|


Outro
|------------------------------------------------|       |-------|
|------------------------------------------------|       |-------|
|-9/11-------9/11-----7----9/11-------9/11-----7-| x4    |-14-16-| x1
|---------------------7------------------------7-|       |-------|
|-7/9--------7/9------5----7/9--------7/9------5-|       |-12-14-|
|------5-0-0------5-0-----------5-0-0------5-0---|       |-------|

11.IDLE HANDS

Main riff:
  |-------------------------------------------------------------|
  |-------------------------------------------------------------|
  |-7-7-7-0-7-8-8--------------7-7-7-0-0-3----------------------|
  |-7-7-7-0-7-8-8-5-7-5--------7-7-7-0-0-3-----------5-4--------|
  |-5-5-5-0-5-6-6-------0-6-5--5-5-5-0-0-1-3-0-3-0-3------------|
  |-------------------------------------------------------------|

verse:
  |-------------------------|
  |-------------------------|
  |-------------------------|
  |-------------------------|
  |-0-1-0-1-0--0-0--0-1-0-3-|
  |-0-1-0-1-0--0-0--0-1-0-3-|

Bridge1
  |--------------------------|
  |--------------------------|
  |--------------------------|
  |--------------------------|
  |-0--0-0--1-0--0-0-0-1-0-3-|
  |-0--0-0--1-0--0-0-0-1-0-3-|
       . .    .

Bridge2
  |---------|
  |---------|
  |---------|
  |-6-1-5-0-|
  |-6-1-5-0-|
  |---------|

  |-------------------------------------------------|
  |-------------------------------------------------|
  |-7-0-7-0-7-0-3-0-3-0-3-0-------------------------|
  |-7-0-7-0-7-0-3-0-3-0-3-0-3-0-3-0-3-0-1-0-1-0-1-0-|
  |-5-0-5-0-5-0-1-0-1-0-1-0-3-0-3-0-3-0-1-0-1-0-1-0-|
  |-------------------------3-0-3-0-3-0-1-0-1-0-1-0-|

12.TUMULT

Intro/outro
----------------------------------|
----44444--2--5--44444--7--9------|     Just repeat the first bit
----66666--4--7--66666--9--11-----|
----66666--4--7--66666--9--11-----|
-----PM------------PM-------------|
----------------------------------|

Verse
It's mainly bass and I haven't got a clue what it is but the guitar is just
--------|
--2/4---|
--4/6---|
--------|
--------|
--------|

Chorus
--------------------|
-----44444--2--5----|
-----66666--4--7----|
-----66666--4--7----|
------PM------------|
--------------------|

Peak
Again, this is just bass and this bass part is
-------------------------|
--------4---5----2-------|
-------------------------|
-------------------------|

13.OMEGA

Don't Know

ENJOY!!!
comments
print report bad tab
3 comments total.
0 reply
(sic)ness6669 wrote on May 26 2006, 11:20 pm

wow u tabbed it with a seven string guitar... interesting

0 reply
jason_smiths wrote on July 11 2006, 06:42 pm

can u count dude

0 reply
slipknot09 wrote on July 13 2006, 11:41 pm

no he can count,he tabbed a seven string guitar for "Orchids".

I want to post or [tab]
guest
You may want to rate the tab now too:
select rating
Please do not post tabs as comments. Select "correction" instead!