Oops, an error
Loading. Please wait.

Taciturn Tab

ver1
ver1

Whole song

More versions @911Tabs.com
10,424 views 30 this week
1 commentread comment
1 2 3 4 5
excellent!
x 2
Autoscroll
+/-
esc
set tempo
stop
Contributor
Difficulty
Tuning
intermediate
C# G# C# F# A# D#
WARNING: You are trying to view
                                    content from Ultimate-Guitar.com
                                    in an unauthorized application,
                                    which is prohibited.

                                    Please use an official Ultimate
                                    Guitar Tabs application for iPhone,
                                    iPad or Android to access legitimate
                                    chords, guitar, bass, and drum tabs
                                    from Ultimate-Guitar.com database.

                                    Type "ultimate guitar tabs" in Apple
                                    App Store's or Android Market's
                                    search to find the application.
----------------------------------------------------------------------------
                             Taciturn
                             Stone Sour
----------------------------------------------------------------------------

This is a beautiful song all around. Very meaningful lyrics, interesting guitar effects, 
and the acoustics are enticing. Enjoy!

Username: dkm817 (same on X box live)
Youtube Cover:
Email: guitardrums@rockfan.com

Guitar 1 Rhythmic (C# G# C# F# A# D#)
Guitar 2 Lead     (C# G# C# F# A# D#)
Guitar 3 Acoustic (D# G# C# F# A# D#)
Guitar 4 Acoustic (D# G# C# F# A# D#)

NOTE: This was exported off of guitar pro.


Guitar 1

(Starts at 2:56)

                                                       H        Q
-------|-------|-------|-------|-------|-------|-------|----------------|
-------|-------|-------|-------|-------|-------|-------|----------------|
-------|-------|-------|-------|-------|-------|-------|----------------|
-------|-------|-------|-------|-------|-------|-------|--5--------L----|
-------|-------|-------|-------|-------|-------|-------|--5--------L----|
-------|-------|-------|-------|-------|-------|-------|--5--------L----|


  Q    E  E  E  E     H        Q       Q    E  E  E  E     H        Q
-------------------|----------------|-------------------|----------------|
-------------------|----------------|-------------------|----------------|
-------------------|----------------|-------------------|--5--------L----|
--5----5--5--5--5--|--3--------L----|--3----3--3--3--3--|--5--------L----|
--5----5--5--5--5--|--3--------L----|--3----3--3--3--3--|--3--------L----|
--5----5--5--5--5--|--3--------L----|--3----3--3--3--3--|----------------|


  Q    E  E  E  E     H        Q       Q    E  E  E  E     H        Q
-------------------|----------------|-------------------|----------------|
-------------------|----------------|-------------------|----------------|
--5----5--5--5--5--|----------------|-------------------|----------------|
--5----5--5--5--5--|--8--------L----|--8----8--8--8--8--|--5--------L----|
--3----3--3--3--3--|--8--------L----|--8----8--8--8--8--|--5--------L----|
-------------------|--8--------L----|--8----8--8--8--8--|--5--------L----|


  Q    E  E  E  E     H        Q       Q    E  E  E  E     H        Q
-------------------|----------------|-------------------|----------------|
-------------------|----------------|-------------------|----------------|
-------------------|----------------|-------------------|--5--------L----|
--5----5--5--5--5--|--3--------L----|--3----3--3--3--3--|--5--------L----|
--5----5--5--5--5--|--3--------L----|--3----3--3--3--3--|--3--------L----|
--5----5--5--5--5--|--3--------L----|--3----3--3--3--3--|----------------|


  Q    E  E  E  E     H        Q       Q    E    Q     E     H        Q
-------------------|----------------|---------------------|----------------|
-------------------|----------------|---------------------|----------------|
--5----5--5--5--5--|----------------|---------------------|----------------|
--5----5--5--5--5--|--8--------L----|--8----8--/12\----L--|--3--------L----|
--3----3--3--3--3--|--8--------L----|--8----8--/12\----L--|--3--------L----|
-------------------|--8--------L----|--8----8--/12\----L--|--3--------L----|


  H        Q       H        Q       H        Q       H        Q
----------------|----------------|----------------|----------------|
----------------|----------------|----------------|----------------|
--5--------L----|----------------|----------------|----------------|
--5--------L----|--5--------L----|--5--------L----|--3--------L----|
--3--------L----|--5--------L----|--5--------L----|--3--------L----|
----------------|--5--------L----|--5--------L----|--3--------L----|


  H        Q       H        Q       H        Q       H        Q
----------------|----------------|----------------|----------------|
----------------|----------------|----------------|----------------|
--5--------L----|----------------|----------------|----------------|
--5--------L----|--5--------L----|--5--------L----|--3--------L----|
--3--------L----|--5--------L----|--5--------L----|--3--------L----|
----------------|--5--------L----|--5--------L----|--3--------L----|


  H        Q       H        Q       H        Q       H        Q
----------------|----------------|----------------|----------------|
----------------|----------------|----------------|----------------|
--5--------L----|----------------|----------------|----------------|
--5--------L----|--5--------L----|--5--------L----|--3--------L----|
--3--------L----|--5--------L----|--5--------L----|--3--------L----|
----------------|--5--------L----|--5--------L----|--3--------L----|


  H        Q       E  E  E  E  E  E     E  E  E  E  E  E     H        Q
----------------|--------------------|--------------------|----------------|
----------------|--------------------|--------------------|----------------|
----------------|--5--5--5--5--5--5--|--5-----------------|----------------|
--3--------L----|--5--5--5--5--5--5--|--5-----------------|--5--------L----|
--3--------L----|--3--3--3--3--3--3--|--3-----------------|--5--------L----|
--3-------------|--------------------|--------------------|--5--------L----|


  Q    E  E  E  E     H        Q       Q    E  E  E  E     H        Q
-------------------|----------------|-------------------|----------------|
-------------------|----------------|-------------------|----------------|
-------------------|----------------|-------------------|--5--------L----|
--5----5--5--5--5--|--3--------L----|--3----3--3--3--3--|--5--------L----|
--5----5--5--5--5--|--3--------L----|--3----3--3--3--3--|--3--------L----|
--5----5--5--5--5--|--3--------L----|--3----3--3--3--3--|----------------|


  Q    E  E  E  E     H        Q       Q    E  E  E  E
-------------------|----------------|-------------------|
-------------------|----------------|-------------------|
--5----5--5--5--5--|----------------|-------------------|
--5----5--5--5--5--|--8--------L----|--8----8--8--8--8--|
--3----3--3--3--3--|--8--------L----|--8----8--8--8--8--|
-------------------|--8--------L----|--8----8--8--8--8--|


  S S S S T  T  T  T  T  S  S S T  T  T  T  T
----------------------------------------------|
------------------10-11-10-----------------11-|
----------9-10-12----------12-----10-12-14----|
----------------------------------------------|
----------------------------------------------|
----------------------------------------------|


   T  S  S S T  T  T  T  T  E   E   E     E  E  E   E    E   E
---------------------------------------|------------------------|
--13-11-----------------13-15--13--11--|-----------17b--15------|
--------12-----12-14-15----------------|--------------------17--|
---------------------------------------|------------------------|
---------------------------------------|------------------------|
---------------------------------------|------------------------|


   E   E   E   E   E   E     E  E  E   E   E   E       E   E   E   E   E    E
--------------------------|------------------------|---------------------------|
--15----------------------|------------------------|------------------18b--18--|
------12--14--15--14------|-----------14--15--17b--|--17--15--14--15-----------|
----------------------15--|------------------------|---------------------------|
--------------------------|------------------------|---------------------------|
--------------------------|------------------------|---------------------------|


   H         Q        Q    E   Q    E     E  E  E   T  T  T  T  S  S  S  S
------------------|--------------------|-----------------------------------|
------------------|--------------------|--------------------13-15-13-------|
--15b--------L----|--15----L--14----L--|-----------12-14-15----------15-12-|
------------------|--------------------|-----------------------------------|
------------------|--------------------|-----------------------------------|
------------------|--------------------|-----------------------------------|


   E   E   E   E   E   E      H        Q        E   E   E   E   E   E
--15--13------13----------|-----------------|--15--13------15--13------|
----------15------15--13--|--13--------L----|----------15----------15--|
--------------------------|-----------------|--------------------------|
--------------------------|-----------------|--------------------------|
--------------------------|-----------------|--------------------------|
--------------------------|-----------------|--------------------------|


  E  E  E   E   E   E      E   E   E   E   E   E     E  E  E  E   Q
-----------------------|--------------------------|---------------------|
-----------------------|--------------------------|---------------------|
-----------15--14------|------15------15--14------|--------------15b----|
-------------------15--|--17------17----------15--|---------------------|
-----------------------|--------------------------|---------------------|
-----------------------|--------------------------|---------------------|


   E   E   E   E   E   E      E   E   E   E   E   E      E   E   E   E  E  E
--------------------------|--------------------------|------------------------|
--------------------------|--------------------------|------------------------|
--15--15--14--14--12--12--|--14--14--15--15--17--17--|--19--19--19--19--------|
--------------------------|--------------------------|------------------------|
--------------------------|--------------------------|------------------------|
--------------------------|--------------------------|------------------------|


Guitar 2

(Starts at 1:52)

                                          H         Q       H         E   E
-------|-------|-------|-------|-------|-----------13----|--L----------------|
-------|-------|-------|-------|-------|-----------------|-------------------|
-------|-------|-------|-------|-------|-----------------|-----------15--14--|
-------|-------|-------|-------|-------|-----------------|-------------------|
-------|-------|-------|-------|-------|-----------------|-------------------|
-------|-------|-------|-------|-------|-----------------|-------------------|


   E   E   E   E  Q       H        Q        E   E   E   E  Q
--------------15--L----|--L--------L----|--------------13--L----|
------15---------------|----------------|------13---------------|
--15------15-----------|----------------|----------14-----------|
-----------------------|----------------|--15-------------------|
-----------------------|----------------|-----------------------|
-----------------------|----------------|-----------------------|


   H        Q        E   E   E   E  Q       H         E   E
---L--------L----|--15-------------------|-------------------|
-----------------|------15---------------|-------------------|
-----------------|----------17-----------|-----------15--14--|
-----------------|--------------17--L----|--L----------------|
-----------------|-----------------------|-------------------|
-----------------|-----------------------|-------------------|


   E   E   E   E  Q        H        Q        E   E   E   E  Q
--------------15--L----|--13--------L----|--------------13--L----|
------15---------------|-----------------|------13---------------|
--15------15-----------|-----------------|----------14-----------|
-----------------------|-----------------|--15-------------------|
-----------------------|-----------------|-----------------------|
-----------------------|-----------------|-----------------------|


   H        Q        E   E   E   E  Q       H         E   E
--13--------L----|--15-------------------|-------------------|
-----------------|------15---------------|-------------------|
-----------------|----------17-----------|-----------15--14--|
-----------------|--------------17--L----|--L----------------|
-----------------|-----------------------|-------------------|
-----------------|-----------------------|-------------------|


   E   E   E   E  Q       H        Q        E   E   E   E  Q
--------------15--L----|--L--------L----|--------------13--L----|
------15---------------|----------------|------13---------------|
--15------15-----------|----------------|----------14-----------|
-----------------------|----------------|--15-------------------|
-----------------------|----------------|-----------------------|
-----------------------|----------------|-----------------------|


   H        Q        Q    E   Q    E      H        Q
---L--------L----|--------------------|-----------------|
-----------------|--------------------|-----------------|
-----------------|--12-------14-------|--15--------L----|
-----------------|--------------------|-----------------|
-----------------|--------------------|-----------------|
-----------------|--------------------|-----------------|


   E   E   E   E  Q        H        Q        E   E   E   E  Q
--------------13--L----|---L--------L----|--15-------------------|
------13---------------|-----------------|------15---------------|
----------14-----------|-----------------|----------17-----------|
--15-------------------|-----------------|--------------17--L----|
-----------------------|-----------------|-----------------------|
-----------------------|-----------------|-----------------------|


   H        Q        E   E   E   E  Q        Q    E  E   E   E
--13--------L----|--------------13--L----|--13----L-------------|
-----------------|------13---------------|----------------------|
-----------------|----------14-----------|--------------12--14--|
-----------------|--15-------------------|----------------------|
-----------------|-----------------------|----------------------|
-----------------|-----------------------|----------------------|


   Q    E   Q    E      H        Q        E   E   E   E   E   E
--------------------|-----------------|--------------13----------|
--------------------|-----------------|----------13------13------|
--15-------14-------|--15--------L----|------14--------------14--|
--------------------|-----------------|--15----------------------|
--------------------|-----------------|--------------------------|
--------------------|-----------------|--------------------------|


   E   E   E   E   E   E      E   E   E   E   E   E      E  E  E  E  E  E
--15----------13----------|--15----------------------|---------------------|
------13----------13------|------15------15----------|--15-----------------|
----------14----------14--|----------17------17------|---------------------|
--------------------------|----------------------17--|---------------------|
--------------------------|--------------------------|---------------------|
--------------------------|--------------------------|---------------------|


  H        Q       Q    E   E  E  E     H        Q       H        Q
----------------|--------------------|----------------|----------------|
----------------|--------------------|----------------|----------------|
----------------|--------------------|----------------|----------------|
--5--------L----|--------------------|--3--------L----|--L--------L----|
--5--------L----|--------------------|--3--------L----|--L--------L----|
--5--------L----|--L----L--/7--5--3--|--3--------L----|--L--------L----|


  H        Q       H        Q       H        Q         E  E  E  E  E  E
----------------|----------------|----------------|----------------------|
----------------|----------------|----------------|----------------------|
--5--------L----|--L--------L----|----------------|----------------------|
--5--------L----|--L--------L----|--8--------L----|----------------------|
--3--------L----|--L--------L----|--8--------L----|----------------------|
----------------|----------------|--8--------L----|--/10--8--7--8--7--3--|


  H        Q       Q    E   E  E  E     H        Q       H        Q
----------------|--------------------|----------------|----------------|
----------------|--------------------|----------------|----------------|
----------------|--------------------|----------------|----------------|
--5--------L----|--------------------|--3--------L----|--L--------L----|
--5--------L----|--------------------|--3--------L----|--L--------L----|
--5--------L----|--L----L--/7--5--3--|--3--------L----|--L--------L----|


  H        Q       H        Q       S S S S  S  S  S  S  S  S S S
----------------|----------------|--------------------------------|
----------------|----------------|--------------------------------|
--5--------L----|--L--------L----|--------------------------------|
--5--------L----|--L--------L----|----------10-10-12-12-10-10-----|
--3--------L----|--L--------L----|------8-8-------------------8-8-|
----------------|----------------|--8-8---------------------------|


  S S S S  S  S  S  S  S  S S S     Q     Q     Q        Q     E   E   E   E
--------------------------------|--15----------13----|------------------------|
--------------------------------|--------15----------|--13----15--15--11--11--|
--------------------------------|--------------------|------------------------|
----------10-10-12-12-10-10-----|--------------------|------------------------|
------8-8-------------------8-8-|--------------------|------------------------|
--8-8---------------------------|--------------------|------------------------|


   Q    E   T  T  S  S  S  E      E   E   E   Q     E      Q     E   E   Q
------------------------------|------------------------|----------------------|
------------------------------|--13--11----------------|----------------13----|
--12----L--14-15-14-12----12--|----------12--11b----L--|--14----15--15--------|
-----------------------15-----|------------------------|----------------------|
------------------------------|------------------------|----------------------|
------------------------------|------------------------|----------------------|


   Q     E   E   E  S  S     Q    E   E   E   E
-------------------------|-----------22----------|
-------------------------|---------------15--18--|
--15----14--14--12--L-10-|--12----L--------------|
-------------------------|-----------------------|
-------------------------|-----------------------|
-------------------------|-----------------------|


                  PM    PM
   E   E   E   S  S  S  S  E
------------------------------|
--13--15--11--13--------------|
--------------------14----15--|
------------------------------|
-----------------12----13-----|
------------------------------|


                                                   |--3--|  |--3--|
   T  T  T  T  T  T  T  T  T  T  T  T  T  T  T  T  S  S  S  S  S  S
--------------------------------------------------------------------|
--16-18-16-15-------------------------------------------------------|
--------------17-15-14-12-14-15-14-12-------------------------------|
--------------------------------------15-14-12-------------15-17-19-|
-----------------------------------------------15-13-15-17----------|
--------------------------------------------------------------------|


   |--3--|  |--3--|
   S  S  S  S  S  S  S  S  E   E   E      E   E   E   E   E   E
--------------------18-20-22--17------|--22--------------22--18--|
-----------18-20-22---------------20--|------15--18--13----------|
--17-19-20----------------------------|--------------------------|
--------------------------------------|--------------------------|
--------------------------------------|--------------------------|
--------------------------------------|--------------------------|


   E   E   E  E    E   E      E   E   E   E    S  S  E
--20--22--20--L\----------|--------------24b------------|
------------------20--18--|--20--18--20-----------------|
--------------------------|-----------------------------|
--------------------------|-------------------15-17-15--|
--------------------------|-----------------------------|
--------------------------|-----------------------------|


   E   E   E   E   S  S S  S     E   E   E   E   E   E      E  E  E  E  E  E
-----------------------------|--------------------------|---------------------|
--20--18--20-----------------|--20--18------20--18------|---------------------|
--------------19-------------|----------19----------19--|--17-----------------|
-----------------------------|--------------------------|---------------------|
------------------------8-10-|--------------------------|---------------------|
------------------10-12------|--------------------------|---------------------|


  E  E  E  E  E  E      E  E  E  E  E  E     E  E  E  E  E  E
--------------------|---------------------|--------------------|
--------------------|---------------------|--------------------|
--------------------|---------------------|--------------------|
--5--5--------------|---------------------|--3--3--3-----------|
--5--5--------------|---------------------|--3--3--3-----------|
--5--5--7--8--7--5--|--10--8--7--8--7--5--|--3--3--3--3--5--5--|


  E  E  E  E  E  E     E  E  E  S S S S S S    S S S S E  E  E  E
--------------------|-----------------------|----------------------|
--------------------|-----------------------|----------------------|
--------------------|--5--5--5--------------|----------5--5--5--5--|
-----------3--3--3--|--5--5--5--------------|----------5--5--5--5--|
-----------3--3--3--|--3--3--3--3-3-5-5-7-7-|--5-5-3-3-3--3--3--3--|
--3--3--3--3--3--3--|-----------------------|----------------------|


  S S S S  S  S  S  S  S  S S S    S S S S  S  S  S  S  S  S S S
--------------------------------|--------------------------------|
--------------------------------|--------------------------------|
--------------------------------|--------------------------------|
----------10-10-12-12-10-10-----|----------10-10-12-12-10-10-----|
------8-8-------------------8-8-|------8-8-------------------8-8-|
--8-8---------------------------|--8-8---------------------------|


  E  E  E  E  E  E      E  E  E  E  E  E     E  E  E  E  E  E
--------------------|---------------------|--------------------|
--------------------|---------------------|--------------------|
--------------------|---------------------|--------------------|
--5--5--------------|---------------------|--3--3--3-----------|
--5--5--------------|---------------------|--3--3--3-----------|
--5--5--7--8--7--5--|--10--8--7--8--7--5--|--3--3--3--3--5--5--|


  E  E  E  E  E  E     E  E  E  S S S S S S    S S S S E  E  E  E
--------------------|-----------------------|----------------------|
--------------------|-----------------------|----------------------|
--------------------|--5--5--5--------------|----------5--5--5--5--|
-----------3--3--3--|--5--5--5--------------|----------5--5--5--5--|
-----------3--3--3--|--3--3--3--3-3-5-5-7-7-|--5-5-3-3-3--3--3--3--|
--3--3--3--3--3--3--|-----------------------|----------------------|


  S S S S  S  S  S  S  S  S S S    S S S S  S  S  S  S  S  S S S
--------------------------------|--------------------------------|
--------------------------------|--------------------------------|
--------------------------------|--------------------------------|
----------10-10-12-12-10-10-----|----------10-10-12-12-10-10-----|
------8-8-------------------8-8-|------8-8-------------------8-8-|
--8-8---------------------------|--8-8---------------------------|


  E  E  E   E  E  E     E  E  E   E  E  E     E  E  E  E  E  E
---------------------|---------------------|--------------------|
---------------------|---------------------|--------------------|
---------------------|---------------------|--------------------|
--5--5---------------|--5--5--5------------|--3--3--------------|
--5--5---------------|--5--5--5------------|--3--3--------------|
--5--5--8--10--8--5--|--5--5--5--10--8--7--|--3--3--5--7--5--3--|


  E  E  E  E  E  E     E  E  E  E  E  E     E  E  E  E  E  E
--------------------|--------------------|--------------------|
--------------------|--------------------|--------------------|
--------------------|--5--5--------------|--5--5--5-----------|
--3--3--3-----------|--5--5--------------|--5--5--5-----------|
--3--3--3-----------|--3--3--5--7--5--3--|--3--3--3--7--5--3--|
--3--3--3--7--5--3--|--------------------|--------------------|


  S S S S  S  S  S  S  S  S S S    S S S S  S  S  S  S  S  S S S
--------------------------------|--------------------------------|
--------------------------------|--------------------------------|
--------------------------------|--------------------------------|
----------10-10-12-12-10-10-----|----------10-10-12-12-10-10-----|
------8-8-------------------8-8-|------8-8-------------------8-8-|
--8-8---------------------------|--8-8---------------------------|


  S S S S  S  S  S  S  S  S S S    S S S S  S  S  E  E  E
--------------------------------|--------------------------|-----|-----|-----|
--------------------------------|--------------------------|-----|-----|-----|
--------------------------------|--------------------------|-----|-----|-----|
----------10-10-12-12-10-10-----|----------10-10-12--------|-----|-----|-----|
------8-8-------------------8-8-|------8-8-----------------|-----|-----|-----|
--8-8---------------------------|--8-8---------------------|-----|-----|-----|


Guitar 3

(Starts at 0:15)

  E  E  E  E  E  E     E  E  E  E  E  E     E  E  E  E  E  E
--------------------|--------------------|--------------------|
--------------------|--------------------|--------------------|
--3--------3--------|--3--------3--------|--2--------2--------|
-----5--------5-----|-----5--------5-----|-----3--------3-----|
--------5--------5--|--------5--------5--|--------3--------3--|
--------------------|--------------------|--------------------|


  E  E  E  E  E  E     E  E  E  E  E  E     E  E  E  E  E  E
--------------------|--------------------|--------------------|
--------------------|--1--------1--------|--1--------1--------|
--2--------2--------|-----0--------0-----|-----0--------0-----|
-----3--------3-----|--------------------|--------------------|
--------3--------3--|--------3--------3--|--------3--------3--|
--------------------|--------------------|--------------------|


  E  E  E  E  E  E     E  E  E  E  E  E     E  E  E  E  E  E
--------------------|--------------------|--------------------|
--------------------|--------------------|--------------------|
--3--------3--------|--3--------3--------|--2--------2--------|
-----5--------5-----|-----5--------5-----|-----3--------3-----|
--------5--------5--|--------5--------5--|--------3--------3--|
--------------------|--------------------|--------------------|


  E  E  E  E  E  E     E  E  E  E  E  E     E  E  E  E  E  E
--------------------|--------------------|--------------------|
--------------------|--1--------1--------|--1--------1--------|
--2--------2--------|-----0--------0-----|-----0--------0-----|
-----3--------3-----|--------------------|--------------------|
--------3--------3--|--------3--------3--|--------3--------3--|
--------------------|--------------------|--------------------|


  E  E  E  E  E  E     E  E  E  E  E  E     E  E  E  E  E  E
--------------------|--------------------|--------------------|
--------------------|--------------------|--------------------|
--3--------3--------|--3--------3--------|--2--------2--------|
-----5--------5-----|-----5--------5-----|-----3--------3-----|
--------5--------5--|--------5--------5--|--------3--------3--|
--------------------|--------------------|--------------------|


                       ^       ^          ^
  E  E  E  E  E  E     Q    E  Q    E     H        Q       E  E  E  E  E  E
--------------------|--3-------3-------|--3--------L----|--------------------|
--------------------|--3-------3-------|--3--------L----|--------------------|
--2--------2--------|--3-------3-------|--3--------L----|--2--------2--------|
-----3--------3-----|--5-------5-------|--5--------L----|-----3--------3-----|
--------3--------3--|------------------|----------------|--------3--------3--|
--------------------|------------------|----------------|--------------------|


  E  E  E  E  E  E     E  E  E  E  E  E     E  E  E  E  E  E
--------------------|--------------------|--------------------|
--------------------|--------------------|--------------------|
--2--------2--------|--3--------3--------|--3--------3--------|
-----3--------3-----|-----5--------5-----|-----5--------5-----|
--------3--------3--|--------5--------5--|--------5--------5--|
--------------------|--------------------|--------------------|


                                            ^       ^          ^
  E  E  E  E  E  E     E  E  E  E  E  E     Q    E  Q    E     H        Q
--------------------|--------------------|--3-------3-------|--3--------L----|
--------------------|--------------------|--3-------3-------|--3--------L----|
--2--------2--------|--2--------2--------|--3-------3-------|--3--------L----|
-----3--------3-----|-----3--------3-----|--5-------5-------|--5--------L----|
--------3--------3--|--------3--------3--|------------------|----------------|
--------------------|--------------------|------------------|----------------|


  E  E  E  E  E  E     E  E  E  E  E  E     E  E  E  E  E  E     H        Q
--------------------|--------------------|--------------------|----------------|
--------------------|--------------------|--1--------1--------|--1--------L----|
--2--------2--------|--2--------2--------|-----0--------0-----|----------------|
-----3--------3-----|-----3--------3-----|--------------------|----------------|
--------3--------3--|--------3--------3--|--------3--------3--|----------------|
--------------------|--------------------|--------------------|----------------|


  E  E  E  E  E  E     E  E  E  E  E  E     E  E  E  E  E  E
--------------------|--------------------|--------------------|
--------------------|--------------------|--------------------|
--3--------3--------|--3--------3--------|--2--------2--------|
-----5--------5-----|-----5--------5-----|-----3--------3-----|
--------5--------5--|--------5--------5--|--------3--------3--|
--------------------|--------------------|--------------------|


  E  E  E  E  E  E     E  E  E  E  E  E     E  E  E  E  E  E
--------------------|--------------------|--------------------|
--------------------|--1--------1--------|--1--------1--------|
--2--------2--------|-----0--------0-----|-----0--------0-----|
-----3--------3-----|--------------------|--------------------|
--------3--------3--|--------3--------3--|--------3--------3--|
--------------------|--------------------|--------------------|


  E  E  E  E  E  E     E  E  E  E  E  E     E  E  E  E  E  E
--------------------|--------------------|--------------------|
--------------------|--------------------|--------------------|
--3--------3--------|--3--------3--------|--3--------3--------|
-----3--------3-----|-----3--------3-----|-----5--------5-----|
--------5--------5--|--------5--------5--|--------5--------5--|
--------------------|--------------------|--------------------|


  E  E  E  E  E  E     E  E  E  E  E  E     E  E  E  E  E  E
--------------------|--------------------|--------------------|
--------------------|--------------------|--------------------|
--3--------3--------|--2--------2--------|--2--------2--------|
-----5--------5-----|-----3--------3-----|-----3--------3-----|
--------5--------5--|--------3--------3--|--------3--------3--|
--------------------|--------------------|--------------------|


  E  E  E  E  E  E     E  E  E  E  E  E     E  E  E  E  E  E
--------------------|--------------------|--------------------|
--1--------1--------|--1--------1--------|--------------------|
-----0--------0-----|-----0--------0-----|--3--------3--------|
--------------------|--------------------|-----3--------3-----|
--------3--------3--|--------3--------3--|--------5--------5--|
--------------------|--------------------|--------------------|


  E  E  E  E  E  E     H        Q       H        Q       E  E  E  E  E  E
--------------------|----------------|----------------|--------------------|
--------------------|----------------|----------------|--------------------|
--3--------3--------|--3--------L----|--L--------L----|--3--------3--------|
-----3--------3-----|----------------|----------------|-----5--------5-----|
--------5--------5--|----------------|----------------|--------5--------5--|
--------------------|----------------|----------------|--------------------|


  E  E  E  E  E  E     E  E  E  E  E  E     E  E  E  E  E  E
--------------------|--------------------|--------------------|
--------------------|--------------------|--------------------|
--3--------3--------|--2--------2--------|--2--------2--------|
-----5--------5-----|-----3--------3-----|-----3--------3-----|
--------5--------5--|--------3--------3--|--------3--------3--|
--------------------|--------------------|--------------------|


  E  E  E  E  E  E     E  E  E  E  E  E     E  E  E  E  E  E
--------------------|--------------------|--------------------|
--1--------1--------|--1--------1--------|--------------------|
-----0--------0-----|-----0--------0-----|--3--------3--------|
--------------------|--------------------|-----5--------5-----|
--------3--------3--|--------3--------3--|--------5--------5--|
--------------------|--------------------|--------------------|


  E  E  E  E  E  E     E  E  E  E  E  E     E  E  E  E  E  E
--------------------|--------------------|--------------------|
--------------------|--------------------|--------------------|
--3--------3--------|--2--------2--------|--2--------2--------|
-----5--------5-----|-----3--------3-----|-----3--------3-----|
--------5--------5--|--------3--------3--|--------3--------3--|
--------------------|--------------------|--------------------|


  E  E  E  E  E  E     E  E  E  E  E  E     E  E  E  E  E  E
--------------------|--------------------|--------------------|
--1--------1--------|--1--------1--------|--------------------|
-----0--------0-----|-----0--------0-----|--3--------3--------|
--------------------|--------------------|-----5--------5-----|
--------3--------3--|--------3--------3--|--------5--------5--|
--------------------|--------------------|--------------------|


  E  E  E  E  E  E     E  E  E  E  E  E     E  E  E  E  E  E
--------------------|--------------------|--------------------|
--------------------|--------------------|--------------------|
--3--------3--------|--2--------2--------|--2--------2--------|
-----5--------5-----|-----3--------3-----|-----3--------3-----|
--------5--------5--|--------3--------3--|--------3--------3--|
--------------------|--------------------|--------------------|


  ^       ^          ^
  Q    E  Q    E     H        Q       E  E  E  E  E  E     E  E  E  E  E  E
--3-------3-------|--3--------L----|--------------------|--------------------|
--3-------3-------|--3--------L----|--------------------|--------------------|
--3-------3-------|--3--------L----|--2--------2--------|--2--------2--------|
--5-------5-------|--5--------L----|-----3--------3-----|-----3--------3-----|
------------------|----------------|--------3--------3--|--------3--------3--|
------------------|----------------|--------------------|--------------------|


  E  E  E  E  E  E     E  E  E  E  E  E     E  E  E  E  E  E
--------------------|--------------------|--------------------|
--------------------|--------------------|--------------------|
--3--------3--------|--3--------3--------|--2--------2--------|
-----5--------5-----|-----5--------5-----|-----3--------3-----|
--------5--------5--|--------5--------5--|--------3--------3--|
--------------------|--------------------|--------------------|


                       ^       ^          ^
  E  E  E  E  E  E     Q    E  Q    E     H        Q       E  E  E  E  E  E
--------------------|--3-------3-------|--3--------L----|--------------------|
--------------------|--3-------3-------|--3--------L----|--------------------|
--2--------2--------|--3-------3-------|--3--------L----|--2--------2--------|
-----3--------3-----|--5-------5-------|--5--------L----|-----3--------3-----|
--------3--------3--|------------------|----------------|--------3--------3--|
--------------------|------------------|----------------|--------------------|


  E  E  E  E  E  E     E  E  E  E  E  E     E  E  E  E  E  E
--------------------|--------------------|--------------------|
--------------------|--1--------1--------|--1-----------------|
--2--------2--------|-----0--------0-----|--------------------|
-----3--------3-----|--------------------|--------------------|
--------3--------3--|--------3--------3--|--------------------|
--------------------|--------------------|--------------------|


  E  E  E  E  E  E     E  E  E  E  E  E     E  E  E  E  E  E
--3--3--3--3--3--3--|--3--3--3--3--3--3--|--1--1--1--1--1--1--|
--3--3--3--3--3--3--|--3--3--3--3--3--3--|--1--1--1--1--1--1--|
--3--3--3--3--3--3--|--3--3--3--3--3--3--|--2--2--2--2--2--2--|
--5--5--5--5--5--5--|--5--5--5--5--5--5--|--3--3--3--3--3--3--|
--5--5--5--5--5--5--|--5--5--5--5--5--5--|--3--3--3--3--3--3--|
--------------------|--------------------|--------------------|


  E  E  E  E  E  E     E  E  E  E  E  E     E  E  E  E  E  E
--1--1--1--1--1--1--|--0--0--0--0--0--0--|--0--0--0--0--0--0--|
--1--1--1--1--1--1--|--1--1--1--1--1--1--|--1--1--1--1--1--1--|
--2--2--2--2--2--2--|--0--0--0--0--0--0--|--0--0--0--0--0--0--|
--3--3--3--3--3--3--|--2--2--2--2--2--2--|--2--2--2--2--2--2--|
--3--3--3--3--3--3--|--3--3--3--3--3--3--|--3--3--3--3--3--3--|
--------------------|--------------------|--------------------|


  E  E  E  E  E  E     E  E  E  E  E  E     E  E  E  E  E  E
--3--3--3--3--3--3--|--3--3--3--3--3--3--|--3--3--3--3--3--3--|
--3--3--3--3--3--3--|--3--3--3--3--3--3--|--3--3--3--3--3--3--|
--3--3--3--3--3--3--|--3--3--3--3--3--3--|--3--3--3--3--3--3--|
--3--3--3--3--3--3--|--3--3--3--3--3--3--|--5--5--5--5--5--5--|
--5--5--5--5--5--5--|--5--5--5--5--5--5--|--5--5--5--5--5--5--|
--------------------|--------------------|--------------------|


  E  E  E  E  E  E     E  E  E  E  E  E     E  E  E  E  E  E
--3--3--3--3--3--3--|--1--1--1--1--1--1--|--1--1--1--1--1--1--|
--3--3--3--3--3--3--|--1--1--1--1--1--1--|--1--1--1--1--1--1--|
--3--3--3--3--3--3--|--2--2--2--2--2--2--|--2--2--2--2--2--2--|
--5--5--5--5--5--5--|--3--3--3--3--3--3--|--3--3--3--3--3--3--|
--5--5--5--5--5--5--|--3--3--3--3--3--3--|--3--3--3--3--3--3--|
--------------------|--------------------|--------------------|


  E  E  E  E  E  E     E  E  E  E  E  E     E  E  E  E  E  E
--0--0--0--0--0--0--|--0--0--0--0--0--0--|--3--3--3--3--3--3--|
--1--1--1--1--1--1--|--1--1--1--1--1--1--|--3--3--3--3--3--3--|
--0--0--0--0--0--0--|--0--0--0--0--0--0--|--3--3--3--3--3--3--|
--2--2--2--2--2--2--|--2--2--2--2--2--2--|--3--3--3--3--3--3--|
--3--3--3--3--3--3--|--3--3--3--3--3--3--|--5--5--5--5--5--5--|
--------------------|--------------------|--------------------|


  E  E  E  E  E  E     E  E  E  E  E  E     E  E  E  E  E  E
--3--3--3--3--3--3--|--1--1--1--1--1--1--|--0--0--0--0--0--0--|
--3--3--3--3--3--3--|--1--1--1--1--1--1--|--1--1--1--1--1--1--|
--3--3--3--3--3--3--|--2--2--2--2--2--2--|--0--0--0--0--0--0--|
--3--3--3--3--3--3--|--3--3--3--3--3--3--|--2--2--2--2--2--2--|
--5--5--5--5--5--5--|--3--3--3--3--3--3--|--3--3--3--3--3--3--|
--------------------|--------------------|--------------------|


  E  E  E  E  E  E     E  E  E  E  E  E     E  E  E  E  E  E
--3--3--3--3--3--3--|--3--3--3--3--3--3--|--1--1--1--1--1--1--|
--3--3--3--3--3--3--|--3--3--3--3--3--3--|--1--1--1--1--1--1--|
--3--3--3--3--3--3--|--3--3--3--3--3--3--|--2--2--2--2--2--2--|
--5--5--5--5--5--5--|--5--5--5--5--5--5--|--3--3--3--3--3--3--|
--5--5--5--5--5--5--|--5--5--5--5--5--5--|--3--3--3--3--3--3--|
--------------------|--------------------|--------------------|


  E  E  E  E  E  E     E  E  E  E  E  E     E  E  E  E  E  E
--0--0--0--0--0--0--|--3--3--3--3--3--3--|--3--3--3--3--3--3--|
--1--1--1--1--1--1--|--3--3--3--3--3--3--|--3--3--3--3--3--3--|
--0--0--0--0--0--0--|--3--3--3--3--3--3--|--3--3--3--3--3--3--|
--2--2--2--2--2--2--|--5--5--5--5--5--5--|--5--5--5--5--5--5--|
--3--3--3--3--3--3--|--5--5--5--5--5--5--|--5--5--5--5--5--5--|
--------------------|--------------------|--------------------|


  E  E  E  E  E  E     E  E  E  E  E  E     E  E  E  E  E  E
--1--1--1--1--1--1--|--0--0--0--0--0--0--|--3--3--3--3--3--3--|
--1--1--1--1--1--1--|--1--1--1--1--1--1--|--3--3--3--3--3--3--|
--2--2--2--2--2--2--|--0--0--0--0--0--0--|--3--3--3--3--3--3--|
--3--3--3--3--3--3--|--2--2--2--2--2--2--|--5--5--5--5--5--5--|
--3--3--3--3--3--3--|--3--3--3--3--3--3--|--5--5--5--5--5--5--|
--------------------|--------------------|--------------------|


  E  E  E  E  E  E     E  E  E  E  E  E     E  E  E  E  E  E
--3--3--3--3--3--3--|--1--1--1--1--1--1--|--1--1--1--1--1--1--|
--3--3--3--3--3--3--|--1--1--1--1--1--1--|--1--1--1--1--1--1--|
--3--3--3--3--3--3--|--2--2--2--2--2--2--|--2--2--2--2--2--2--|
--5--5--5--5--5--5--|--3--3--3--3--3--3--|--3--3--3--3--3--3--|
--5--5--5--5--5--5--|--3--3--3--3--3--3--|--3--3--3--3--3--3--|
--------------------|--------------------|--------------------|


  E  E  E  E  E  E     E  E  E  E  E  E     E  E  E  E  E  E
--0--0--0--0--0--0--|--0-----------------|--3--3--3--3--3--3--|
--1--1--1--1--1--1--|--1-----------------|--3--3--3--3--3--3--|
--0--0--0--0--0--0--|--0-----------------|--3--3--3--3--3--3--|
--2--2--2--2--2--2--|--2-----------------|--5--5--5--5--5--5--|
--3--3--3--3--3--3--|--3-----------------|--5--5--5--5--5--5--|
--------------------|--------------------|--------------------|


  E  E  E  E  E  E     E  E  E  E  E  E     E  E  E  E  E  E
--3--3--3--3--3--3--|--1--1--1--1--1--1--|--1--1--1--1--1--1--|
--3--3--3--3--3--3--|--1--1--1--1--1--1--|--1--1--1--1--1--1--|
--3--3--3--3--3--3--|--2--2--2--2--2--2--|--2--2--2--2--2--2--|
--5--5--5--5--5--5--|--3--3--3--3--3--3--|--3--3--3--3--3--3--|
--5--5--5--5--5--5--|--3--3--3--3--3--3--|--3--3--3--3--3--3--|
--------------------|--------------------|--------------------|


  E  E  E  E  E  E     E  E  E  E  E  E     E  E  E  E  E  E
--0--0--0--0--0--0--|--0--0--0--0--0--0--|--3--3--3--3--3--3--|
--1--1--1--1--1--1--|--1--1--1--1--1--1--|--3--3--3--3--3--3--|
--0--0--0--0--0--0--|--0--0--0--0--0--0--|--3--3--3--3--3--3--|
--2--2--2--2--2--2--|--2--2--2--2--2--2--|--3--3--3--3--3--3--|
--3--3--3--3--3--3--|--3--3--3--3--3--3--|--5--5--5--5--5--5--|
--------------------|--------------------|--------------------|


  E  E  E  E  E  E     E  E  E  E  E  E     E  E  E  E  E  E
--3--3--3--3--3--3--|--3--3--3--3--3--3--|--3--3--3--3--3--3--|
--3--3--3--3--3--3--|--3--3--3--3--3--3--|--3--3--3--3--3--3--|
--3--3--3--3--3--3--|--3--3--3--3--3--3--|--3--3--3--3--3--3--|
--3--3--3--3--3--3--|--5--5--5--5--5--5--|--5--5--5--5--5--5--|
--5--5--5--5--5--5--|--5--5--5--5--5--5--|--5--5--5--5--5--5--|
--------------------|--------------------|--------------------|


  E  E  E  E  E  E     E  E  E  E  E  E     E  E  E  E  E  E
--1--1--1--1--1--1--|--1--1--1--1--1--1--|--0--0--0--0--0--0--|
--1--1--1--1--1--1--|--1--1--1--1--1--1--|--1--1--1--1--1--1--|
--2--2--2--2--2--2--|--2--2--2--2--2--2--|--0--0--0--0--0--0--|
--3--3--3--3--3--3--|--3--3--3--3--3--3--|--2--2--2--2--2--2--|
--3--3--3--3--3--3--|--3--3--3--3--3--3--|--3--3--3--3--3--3--|
--------------------|--------------------|--------------------|


  E  E  E  E  E  E     E  E  E  E  E  E     E  E  E  E  E  E
--0--0--0--0--0--0--|--3--3--3--3--3--3--|--3--3--3--3--3--3--|
--1--1--1--1--1--1--|--3--3--3--3--3--3--|--3--3--3--3--3--3--|
--0--0--0--0--0--0--|--3--3--3--3--3--3--|--3--3--3--3--3--3--|
--2--2--2--2--2--2--|--3--3--3--3--3--3--|--3--3--3--3--3--3--|
--3--3--3--3--3--3--|--5--5--5--5--5--5--|--5--5--5--5--5--5--|
--------------------|--------------------|--------------------|


  E  E  E  E  E  E     E  E  E  E  E  E     E  E  E  E  E  E
--3--3--3--3--3--3--|--3--3--3--3--3--3--|--1--1--1--1--1--1--|
--3--3--3--3--3--3--|--3--3--3--3--3--3--|--1--1--1--1--1--1--|
--3--3--3--3--3--3--|--3--3--3--3--3--3--|--2--2--2--2--2--2--|
--5--5--5--5--5--5--|--5--5--5--5--5--5--|--3--3--3--3--3--3--|
--5--5--5--5--5--5--|--5--5--5--5--5--5--|--3--3--3--3--3--3--|
--------------------|--------------------|--------------------|


  E  E  E  E  E  E     E  E  E  E  E  E     E  E  E  E  E  E
--1--1--1--1--1--1--|--0--0--0--0--0--0--|--0--0--0--0--0--0--|
--1--1--1--1--1--1--|--1--1--1--1--1--1--|--1--1--1--1--1--1--|
--2--2--2--2--2--2--|--0--0--0--0--0--0--|--0--0--0--0--0--0--|
--3--3--3--3--3--3--|--2--2--2--2--2--2--|--2--2--2--2--2--2--|
--3--3--3--3--3--3--|--3--3--3--3--3--3--|--3--3--3--3--3--3--|
--------------------|--------------------|--------------------|


  E  E  E  E  E  E     E  E  E  E  E  E     E  E  E  E  E  E
--3--3--3--3--3--3--|--3--3--3--3--3--3--|--3--3--3--3--3--3--|
--3--3--3--3--3--3--|--3--3--3--3--3--3--|--3--3--3--3--3--3--|
--3--3--3--3--3--3--|--3--3--3--3--3--3--|--3--3--3--3--3--3--|
--3--3--3--3--3--3--|--3--3--3--3--3--3--|--3--3--3--3--3--3--|
--5--5--5--5--5--5--|--5--5--5--5--5--5--|--5--5--5--5--5--5--|
--------------------|--------------------|--------------------|


  E  E  E  E  E  E     E  E  E  E  E  E     E  E  E  E  E  E
--3--3--3--3--------|--------------------|--------------------|
--3--3--3--3--------|--3--------3--------|--3--------3--------|
--3--3--3--3--------|-----3--------3-----|-----3--------3-----|
--3--3--3--3--------|--------5--------5--|--------5--------5--|
--5--5--5--5--------|--------------------|--------------------|
--------------------|--------------------|--------------------|


                       ^
  E  E  E  E  E  E     H        Q       H        Q
--------------------|--3--------L----|--L--------L----||
--3--------3--------|--3--------L----|--L--------L----||
-----3--------3-----|--3--------L----|--L--------L----||
--------5--------5--|--5--------L----|--L--------L----||
--------------------|----------------|----------------||
--------------------|----------------|----------------||


Guitar 4


      E  E  E  E  E  E     E  E  E  E  E  E     E  E  E  E  E  E
--------------------|--------------------|--------------------|
--3--------3--------|--3--------3--------|--3--------3--------|
-----3--------3-----|-----3--------3-----|-----3--------3-----|
--------5--------5--|--------5--------5--|--------5--------5--|
--------------------|--------------------|--------------------|
--------------------|--------------------|--------------------|


                                                                 ^
  E  E  E  E  E  E     E  E  E  E  E  E     E  E  E  E  E  E     H        Q
--------------------|--------------------|--------------------|--3--------L----|
--3--------3--------|--3--------3--------|--3--------3--------|--3--------L----|
-----3--------3-----|-----3--------3-----|-----3--------3-----|--3--------L----|
--------5--------5--|--------5--------5--|--------5--------5--|--5--------L----|
--------------------|--------------------|--------------------|----------------|
--------------------|--------------------|--------------------|----------------|


  H        Q       E  E  E  E  E  E     E  E  E  E  E  E     E  E  E  E  E  E
--L--------L----|--------------------|--------------------|--------------------|
--L--------L----|--3--------3--------|--3--------3--------|--1--------1--------|
--L--------L----|-----3--------3-----|-----3--------3-----|-----2--------2-----|
--L--------L----|--------5--------5--|--------5--------5--|--------3--------3--|
----------------|--------------------|--------------------|--------------------|
----------------|--------------------|--------------------|--------------------|


  E  E  E  E  E  E     E  E  E  E  E  E     E  E  E  E  E  E
--------------------|--------------------|--------------------|
--1--------1--------|--1--------1--------|--1--------1--------|
-----2--------2-----|-----0--------0-----|-----0--------0-----|
--------3--------3--|--------2--------2--|--------2--------2--|
--------------------|--------------------|--------------------|
--------------------|--------------------|--------------------|


  E  E  E  E  E  E     E  E  E  E  E  E     E  E  E  E  E  E
--------------------|--------------------|--------------------|
--3--------3--------|--3--------3--------|--1--------1--------|
-----3--------3-----|-----3--------3-----|-----2--------2-----|
--------5--------5--|--------5--------5--|--------3--------3--|
--------------------|--------------------|--------------------|
--------------------|--------------------|--------------------|


  E  E  E  E  E  E     E  E  E  E  E  E     E  E  E  E  E  E
--------------------|--------------------|--------------------|
--1--------1--------|--1--------1--------|--1--------1--------|
-----2--------2-----|-----0--------0-----|-----0--------0-----|
--------3--------3--|--------2--------2--|--------2--------2--|
--------------------|--------------------|--------------------|
--------------------|--------------------|--------------------|


  E  E  E  E  E  E     E  E  E  E  E  E     E  E  E  E  E  E
--------------------|--------------------|--------------------|
--3--------3--------|--3--------3--------|--1--------1--------|
-----3--------3-----|-----3--------3-----|-----2--------2-----|
--------5--------5--|--------5--------5--|--------3--------3--|
--------------------|--------------------|--------------------|
--------------------|--------------------|--------------------|


                       ^       ^          ^
  E  E  E  E  E  E     Q    E  Q    E     H        Q       E  E  E  E  E  E
--------------------|--3-------3-------|--3--------L----|--------------------|
--1--------1--------|--3-------3-------|--3--------L----|--1--------1--------|
-----2--------2-----|--3-------3-------|--3--------L----|-----2--------2-----|
--------3--------3--|--5-------5-------|--5--------L----|--------3--------3--|
--------------------|------------------|----------------|--------------------|
--------------------|------------------|----------------|--------------------|


  E  E  E  E  E  E     E  E  E  E  E  E     E  E  E  E  E  E
--------------------|--------------------|--------------------|
--1--------1--------|--3--------3--------|--3--------3--------|
-----2--------2-----|-----3--------3-----|-----3--------3-----|
--------3--------3--|--------5--------5--|--------5--------5--|
--------------------|--------------------|--------------------|
--------------------|--------------------|--------------------|


                                            ^       ^          ^
  E  E  E  E  E  E     E  E  E  E  E  E     Q    E  Q    E     H        Q
--------------------|--------------------|--3-------3-------|--3--------L----|
--1--------1--------|--1--------1--------|--3-------3-------|--3--------L----|
-----2--------2-----|-----2--------2-----|--3-------3-------|--3--------L----|
--------3--------3--|--------3--------3--|--5-------5-------|--5--------L----|
--------------------|--------------------|------------------|----------------|
--------------------|--------------------|------------------|----------------|


  E  E  E  E  E  E     E  E  E  E  E  E     E  E  E  E  E  E     H        Q
--------------------|--------------------|--------------------|----------------|
--1--------1--------|--1--------1--------|--1--------1--------|--1--------L----|
-----2--------2-----|-----2--------2-----|-----0--------0-----|----------------|
--------3--------3--|--------3--------3--|--------2--------2--|----------------|
--------------------|--------------------|--------------------|----------------|
--------------------|--------------------|--------------------|----------------|


  E  E  E  E  E  E     E  E  E  E  E  E     E  E  E  E  E  E
--------------------|--------------------|--------------------|
--3--------3--------|--3--------3--------|--1--------1--------|
-----3--------3-----|-----3--------3-----|-----2--------2-----|
--------5--------5--|--------5--------5--|--------3--------3--|
--------------------|--------------------|--------------------|
--------------------|--------------------|--------------------|


  E  E  E  E  E  E     E  E  E  E  E  E     E  E  E  E  E  E
--------------------|--------------------|--------------------|
--1--------1--------|--1--------1--------|--1--------1--------|
-----2--------2-----|-----0--------0-----|-----0--------0-----|
--------3--------3--|--------2--------2--|--------2--------2--|
--------------------|--------------------|--------------------|
--------------------|--------------------|--------------------|


  E  E  E  E  E  E     E  E  E  E  E  E     E  E  E  E  E  E
--------------------|--------------------|--------------------|
--3--------3--------|--3--------3--------|--3--------3--------|
-----3--------3-----|-----3--------3-----|-----3--------3-----|
--------3--------3--|--------3--------3--|--------5--------5--|
--------------------|--------------------|--------------------|
--------------------|--------------------|--------------------|


  E  E  E  E  E  E     E  E  E  E  E  E     E  E  E  E  E  E
--------------------|--------------------|--------------------|
--3--------3--------|--1--------1--------|--1--------1--------|
-----3--------3-----|-----2--------2-----|-----2--------2-----|
--------5--------5--|--------3--------3--|--------3--------3--|
--------------------|--------------------|--------------------|
--------------------|--------------------|--------------------|


  E  E  E  E  E  E     E  E  E  E  E  E     E  E  E  E  E  E
--------------------|--------------------|--------------------|
--1--------1--------|--1--------1--------|--3--------3--------|
-----0--------0-----|-----0--------0-----|-----3--------3-----|
--------2--------2--|--------2--------2--|--------3--------3--|
--------------------|--------------------|--------------------|
--------------------|--------------------|--------------------|


  E  E  E  E  E  E     H        Q       H        Q       E  E  E  E  E  E
--------------------|----------------|----------------|--------------------|
--3--------3--------|--3--------L----|--L--------L----|--3--------3--------|
-----3--------3-----|----------------|----------------|-----3--------3-----|
--------3--------3--|----------------|----------------|--------5--------5--|
--------------------|----------------|----------------|--------------------|
--------------------|----------------|----------------|--------------------|


  E  E  E  E  E  E     E  E  E  E  E  E     E  E  E  E  E  E
--------------------|--------------------|--------------------|
--3--------3--------|--1--------1--------|--1--------1--------|
-----3--------3-----|-----2--------2-----|-----2--------2-----|
--------5--------5--|--------3--------3--|--------3--------3--|
--------------------|--------------------|--------------------|
--------------------|--------------------|--------------------|


  E  E  E  E  E  E     E  E  E  E  E  E     E  E  E  E  E  E
--------------------|--------------------|--------------------|
--1--------1--------|--1--------1--------|--3--------3--------|
-----0--------0-----|-----0--------0-----|-----3--------3-----|
--------2--------2--|--------2--------2--|--------5--------5--|
--------------------|--------------------|--------------------|
--------------------|--------------------|--------------------|


  E  E  E  E  E  E     E  E  E  E  E  E     E  E  E  E  E  E
--------------------|--------------------|--------------------|
--3--------3--------|--1--------1--------|--1--------1--------|
-----3--------3-----|-----2--------2-----|-----2--------2-----|
--------5--------5--|--------3--------3--|--------3--------3--|
--------------------|--------------------|--------------------|
--------------------|--------------------|--------------------|


  E  E  E  E  E  E     E  E  E  E  E  E     E  E  E  E  E  E
--------------------|--------------------|--------------------|
--1--------1--------|--1--------1--------|--3--------3--------|
-----0--------0-----|-----0--------0-----|-----3--------3-----|
--------2--------2--|--------2--------2--|--------5--------5--|
--------------------|--------------------|--------------------|
--------------------|--------------------|--------------------|


  E  E  E  E  E  E     E  E  E  E  E  E     E  E  E  E  E  E
--------------------|--------------------|--------------------|
--3--------3--------|--1--------1--------|--1--------1--------|
-----3--------3-----|-----2--------2-----|-----2--------2-----|
--------5--------5--|--------3--------3--|--------3--------3--|
--------------------|--------------------|--------------------|
--------------------|--------------------|--------------------|


  ^       ^          ^
  Q    E  Q    E     H        Q       E  E  E  E  E  E     E  E  E  E  E  E
--3-------3-------|--3--------L----|--------------------|--------------------|
--3-------3-------|--3--------L----|--1--------1--------|--1--------1--------|
--3-------3-------|--3--------L----|-----2--------2-----|-----2--------2-----|
--5-------5-------|--5--------L----|--------3--------3--|--------3--------3--|
------------------|----------------|--------------------|--------------------|
------------------|----------------|--------------------|--------------------|


  E  E  E  E  E  E     E  E  E  E  E  E     E  E  E  E  E  E
--------------------|--------------------|--------------------|
--3--------3--------|--3--------3--------|--1--------1--------|
-----3--------3-----|-----3--------3-----|-----2--------2-----|
--------5--------5--|--------5--------5--|--------3--------3--|
--------------------|--------------------|--------------------|
--------------------|--------------------|--------------------|


                       ^       ^          ^
  E  E  E  E  E  E     Q    E  Q    E     H        Q       E  E  E  E  E  E
--------------------|--3-------3-------|--3--------L----|--------------------|
--1--------1--------|--3-------3-------|--3--------L----|--1--------1--------|
-----2--------2-----|--3-------3-------|--3--------L----|-----2--------2-----|
--------3--------3--|--5-------5-------|--5--------L----|--------3--------3--|
--------------------|------------------|----------------|--------------------|
--------------------|------------------|----------------|--------------------|


  E  E  E  E  E  E     E  E  E  E  E  E     E  E  E  E  E  E
--------------------|--------------------|--------------------|-----|-----|
--1--------1--------|--1--------1--------|--1-----------------|-----|-----|
-----2--------2-----|-----0--------0-----|--------------------|-----|-----|
--------3--------3--|--------2--------2--|--------------------|-----|-----|
--------------------|--------------------|--------------------|-----|-----|
--------------------|--------------------|--------------------|-----|-----|


Duration Legend
---------------
W - whole
H - half
Q - quarter
E - 8th
S - 16th
T - 32nd
X - 64th
. - note dotted
|-n-|  - n-tuplets


Tablature Legend
----------------
L - tied note
x - dead note
g - grace note
(n) - ghost note
> - accentuded note
NH - natural harmonic
AH - artificial harmonic
TH - tapped harmonic
SH - semi harmonic
PH - pitch harmonic
h - hammer on
p - pull off
b - bend
br - bendRelease
pb - preBend
pbr - preBendRelease
brb - bendReleaseBend
\n/ - tremolo bar dip
\n - tremolo bar dive
-/n - tremolo bar Release up
/n\ - tremolo bar inverted dip
/n - tremolo bar return
-\n - tremolo bar Release down
S - shift slide
s - legato slide
/ -  slide into from below or out of upwards
\ -  slide into from above or out of downwards
~ - vibrato
W - wide vibrato
tr - trill
TP - tremolo picking
T - tapping
S - slap
P - pop
< - fade in
^ - brush up
v - brush down


That is all! I hope this helped, and be sure to check out my cover if you are
having problems with the tab. Thanks, oh and one last thing... ROCK OUT!!!!
comments
We did not receive enough feedback on this tab! Please rate:
print report bad tab
1 2 3 4 5
1 comment total.
0 reply
Cerps wrote on November 11 2012, 12:02 pm

To me it seems like it's accurate, the chords seems to be right but the picking pattern in the acoustic parts starts on a string higher. Otherwise, awesome!

I want to post or [tab]
guest
You may want to rate the tab now too:
select rating
Please do not post tabs as comments. Select "correction" instead!