Oops, an error
Loading. Please wait.

The House Of Gold And Bones Tab

3,016 views 42 this week
no commentswrite comment
1 2 3 4 5
excellent!
x 3
add to favorites launch autoscroll
font size
0
reset
Autoscroll
+/-
esc
set tempo
stop
Contributor
Difficulty
Tuning
advanced
C# G# C# F# A# D#
WARNING: You are trying to view
                                    content from Ultimate-Guitar.com
                                    in an unauthorized application,
                                    which is prohibited.

                                    Please use an official Ultimate
                                    Guitar Tabs application for iPhone,
                                    iPad or Android to access legitimate
                                    chords, guitar, bass, and drum tabs
                                    from Ultimate-Guitar.com database.

                                    Type "ultimate guitar tabs" in Apple
                                    App Store's or Android Market's
                                    search to find the application.
----------------------------------------------------------------------------
                      The House of Gold & Bones
                              Stone Sour
----------------------------------------------------------------------------

What an excellent song. It is a combination of 2 of Stone Sour’s songs into 1 awesome
album/story ender. The intro and guitar solos are very similar to Gone Sovereign while the
pre chorus and chorus relate to Absolute Zero. That is innovation at its finest. Enjoy!

Username: dkm817 (same on X box live)
Youtube Cover: http://www.youtube.com/watch?v=3Jt3x8p8nHs
Email: guitardrums@rockfan.com

Guitar 1 Rhythmic (C# G# C# F# A# D#)
Guitar 2 Lead     (C# G# C# F# A# D#)

NOTE: This was exported off of guitar pro.

Guitar 1

      S S S S S S S S E  E   Q       S S S S S S S S E  E   Q
D#||------------------------------|------------------------------|
A#||------------------------------|------------------------------|
F#||--7-7-7-7-7-7-7-7-7--L\-------|--7-7-7-7-7-7-7-7-7--L\-------|
C#||--7-7-7-7-7-7-7-7-7--L\--0----|--7-7-7-7-7-7-7-7-7--L\--0----|
G#||--5-5-5-5-5-5-5-5-5--L\--0----|--5-5-5-5-5-5-5-5-5--L\--0----|
C#||-------------------------0----|-------------------------0----|


  S S S S S S S S E  E   Q       S S S S S S S S E  E   Q
------------------------------|------------------------------|
------------------------------|------------------------------|
--7-7-7-7-7-7-7-7-7--L\-------|--7-7-7-7-7-7-7-7-7--L\-------|
--7-7-7-7-7-7-7-7-7--L\--0----|--7-7-7-7-7-7-7-7-7--L\--0----|
--5-5-5-5-5-5-5-5-5--L\--0----|--5-5-5-5-5-5-5-5-5--L\--0----|
-------------------------0----|-------------------------0----|


  S S S S S S S S E  E   Q       S S S S S S S S E  E   Q
------------------------------|------------------------------|
------------------------------|------------------------------|
--7-7-7-7-7-7-7-7-7--L\-------|--7-7-7-7-7-7-7-7-7--L\-------|
--7-7-7-7-7-7-7-7-7--L\--0----|--7-7-7-7-7-7-7-7-7--L\--0----|
--5-5-5-5-5-5-5-5-5--L\--0----|--5-5-5-5-5-5-5-5-5--L\--0----|
-------------------------0----|-------------------------0----|


  S S S S S S S S E  E   Q       S S S S S S S S S S S S S S S S
------------------------------|----------------------------------|
------------------------------|----------------------------------|
--7-7-7-7-7-7-7-7-7--L\-------|--7-7-7-7-7-7-7-7-7-7-7-7-7-7-7-7-|
--7-7-7-7-7-7-7-7-7--L\--0----|--7-7-7-7-7-7-7-7-7-7-7-7-7-7-7-7-|
--5-5-5-5-5-5-5-5-5--L\--0----|--5-5-5-5-5-5-5-5-5-5-5-5-5-5-5-5-|
-------------------------0----|----------------------------------|


  W                   W                   W
-------------------|-------------------|-------------------|
-------------------|-------------------|-------------------|
-------------------|-------------------|-------------------|
--0----------------|--L----------------|--L----------------|
--0----------------|--L----------------|--L----------------|
--0----------------|--L----------------|--L----------------|


  H        E  E  E  E     W                   W
-----------------------|-------------------|-------------------|
-----------------------|-------------------|-------------------|
-----------------------|--7----------------|--L----------------|
--L--------1--3--3--4--|--x----------------|-------------------|
--L--------1--3--3--4--|--5----------------|--L----------------|
--L--------1--3--3--4--|-------------------|-------------------|


  W                   H        E  E  E  E     E  E  E  E  E  E  E  E
-------------------|-----------------------|--------------------------|
-------------------|-----------------------|--------------------------|
--L----------------|--L--------------------|--------------------------|
-------------------|-----------1--3--3--4--|--------------------------|
--L----------------|--L--------1--3--3--4--|--------------------------|
-------------------|-----------1--3--3--4--|--1--0-----0--1--4--1--0--|


  E  E  E  E  E  E  E  E     E  E  E  E  E  E  E  E
--------------------------|--------------------------|
--------------------------|--------------------------|
--------------------------|--------------------------|
--------------------------|--------------------------|
--------------3--0--------|--------------------------|
--1--0-----0--------1--0--|--1--0-----0--1--4--1--0--|


  E  E  E  E  E  E  E  E     E  E  E  E  E  E  E  E
--------------------------|--------------------------|
--------------------------|--------------------------|
--------------------------|--------------------------|
--------------1--3--3--4--|--------------------------|
--------------1--3--3--4--|--------------------------|
--1--0-----0--1--3--3--4--|--1--0-----0--1--4--1--0--|


  E  E  E  E  E  E  E  E     E  E  E  E  E  E  E  E
--------------------------|--------------------------|
--------------------------|--------------------------|
--------------------------|--------------------------|
--------------------------|--------------------------|
--------------3--0--------|--------------------------|
--1--0-----0--------1--0--|--1--0-----0--1--4--1--0--|


  E  E  E  E  E  E  E  E     E  E  E  E  E  E  E  E
--------------------------|--------------------------|
--------------------------|--------------------------|
--------------------------|--------------------------|
--------------1--3--3--4--|--------------------------|
--------------1--3--3--4--|--------------------------|
--1--0-----0--1--3--3--4--|--0--0-----0--0--0--0--0--|


  E  E  E  E  E  E  E  E     E  E  E  E  E  E  E  E
--------------------------|--------------------------|
--------------------------|--------------------------|
--------------------------|--------------------------|
--------------------------|--------------------------|
--------------------------|--------------------------|
--0--0-----0--0--0--0--0--|--0--0-----0--0--0--0--0--|


  E  E  E  E  E  E  E  E     E  E  E  E  E  E  E  E
--------------------------|--------------------------|
--------------------------|--------------------------|
--------------5--5--5--5--|--------------------------|
--------------5--5--5--5--|--------------------------|
--------------3--3--3--3--|--------------------------|
--0--0-----0--------------|--0--0-----0--0--0--0--0--|


  E  E  E  E  E  E  E  E     E  E  E  E  E  E  E  E
--------------------------|--------------------------|
--------------------------|--------------------------|
--------------------------|--------------------------|
--------------------------|--------------------------|
--------------------------|--------------------------|
--0--0-----0--0--0--0--0--|--0--0-----0--0--0--0--0--|


  E  E  E  E  E  E  E  E     E  E  E  E  E  E  E  E
--------------------------|--------------------------|
--------------------------|--------------------------|
--------------5--5--5--5--|--------------------------|
--------------5--5--5--5--|--3--3-----3--3--3--------|
--------------3--3--3--3--|--3--3-----3--3--3-----3--|
--0--0-----0--------------|--3--3-----3--3--3--3--L--|


  E  E  E  E  E  E  E  E     E  E  E  E  E  E  E  E
--------------------------|--------------------------|
--------------------------|--------------------------|
--------------------------|--------------------------|
--3--3-----3--3--3--------|--3--3-----3--3--3--------|
--3--3-----3--3--3-----3--|--3--3-----3--3--3-----3--|
--3--3-----3--3--3--3--L--|--3--3-----3--3--3--3--L--|


  E  E  E  E  E  E  E  E     E  E  E  E  E  E  E  E
--------------------------|--------------------------|
--------------------------|--------------------------|
--------------------------|--------------------------|
--3--3-----3--1--1--1--1--|--0--0-----0--0--0--0--0--|
--3--3-----3--1--1--1--1--|--0--0-----0--0--0--0--0--|
--3--3-----3--1--1--1--1--|--0--0-----0--0--0--0--0--|


  E  E  E  E  E  E  E  E     E  E  E  E  E  E  E  E
--------------------------|--------------------------|
--------------------------|--------------------------|
--------------------------|--------------------------|
--0--0-----0--0--0--0--0--|--0--0-----0--0--0--0--0--|
--0--0-----0--0--0--0--0--|--0--0-----0--0--0--0--0--|
--0--0-----0--0--0--0--0--|--0--0-----0--0--0--0--0--|


  E  E  E  E  E  E  E  E     W                   H        E   E   E  E
--------------------------|-------------------|-------------------------|
--------------------------|-------------------|-------------------------|
--------------------------|-------------------|-------------------------|
--0--0-----0--1--3--3--4--|--8----------------|--L--------8--10--10--8--|
--0--0-----0--1--3--3--4--|--8----------------|--L--------8--10--10--8--|
--0--0-----0--1--3--3--4--|--8----------------|--L--------8--10--10--8--|


  Q    E  Q    E  Q       W                   W
-----------------------|-------------------|-------------------|
------------------3----|--L----------------|-------------------|
------------------2----|--L----------------|-------------------|
--7----L--0----L--0----|--L----------------|--8----------------|
--7----L--0----L--0----|--L----------------|--8----------------|
--7----L--0----L--0----|--L----------------|--8----------------|


  H        E   E   E  E     W                   E  E  E  E  E  E  E  E
-------------------------|-------------------|--------------------------|
-------------------------|-------------------|--------------------------|
-------------------------|-------------------|--2--3--3--5--5--7--7--8--|
--L--------8--10--10--8--|--7----------------|--2--3--3--5--5--7--7--8--|
--L--------8--10--10--8--|--7----------------|--0--1--1--3--3--5--5--6--|
--L--------8--10--10--8--|--7----------------|--------------------------|


  E  E  E  E  E  E  E  E     E  E  E  E  E  E  E  E
--------------------------|--------------------------|
--------------------------|--------------------------|
--7--7--7--7--5--5--5--5--|--8--8--8--8--------------|
--7--7--7--7--5--5--5--5--|--8--8--8--8--8--8--8--8--|
--5--5--5--5--3--3--3--3--|--6--6--6--6--8--8--8--8--|
--------------------------|--------------8--8--8--8--|


  E  E  E  E  E  E  E  E     E  E  E  E  E  E  E  E
--------------------------|--------------------------|
--------------------------|--------------------------|
--7--7--7--7--5--5--5--5--|--------------------------|
--7--7--7--7--5--5--5--5--|--7--7--8--8--7--7--7--7--|
--5--5--5--5--3--3--3--3--|--7--7--8--8--7--7--7--7--|
--------------------------|--7--7--8--8--7--7--7--7--|


  E  E  E  E  E  E  E  E     E  E  E  E  E  E  E  E
--------------------------|--------------------------|
--------------------------|--------------------------|
--7--7--7--7--5--5--5--5--|--8--8--8--8--------------|
--7--7--7--7--5--5--5--5--|--8--8--8--8--8--8--8--8--|
--5--5--5--5--3--3--3--3--|--6--6--6--6--8--8--8--8--|
--------------------------|--------------8--8--8--8--|


  E  Q     E  E  E  E  E     E  E  E  E  E  E  E  E
--------------------------|--------------------------|
--------------------------|--------------------------|
--------------------------|--------------------------|
--7--L\-------------------|--------------------------|
--7--L\-------------------|--------------------------|
--7--L\----0--3--0--2--0--|--1--0-----0--1--4--1--0--|


  E  E  E  E  E  E  E  E     E  E  E  E  E  E  E  E
--------------------------|--------------------------|
--------------------------|--------------------------|
--------------------------|--------------------------|
--------------------------|--------------------------|
--------------3--0--------|--------------------------|
--1--0-----0--------1--0--|--1--0-----0--1--4--1--0--|


  E  E  E  E  E  E  E  E     E  E  E  E  E  E  E  E
--------------------------|--------------------------|
--------------------------|--------------------------|
--------------------------|--------------------------|
--------------1--3--3--4--|--------------------------|
--------------1--3--3--4--|--------------------------|
--1--0-----0--1--3--3--4--|--0--0-----0--0--0--0--0--|


  E  E  E  E  E  E  E  E     E  E  E  E  E  E  E  E
--------------------------|--------------------------|
--------------------------|--------------------------|
--------------------------|--------------------------|
--------------------------|--------------------------|
--------------------------|--------------------------|
--0--0-----0--0--0--0--0--|--0--0-----0--0--0--0--0--|


  E  E  E  E  E  E  E  E     E  E  E  E  E  E  E  E
--------------------------|--------------------------|
--------------------------|--------------------------|
--------------5--5--5--5--|--------------------------|
--------------5--5--5--5--|--------------------------|
--------------3--3--3--3--|--------------------------|
--0--0-----0--------------|--0--0-----0--0--0--0--0--|


  E  E  E  E  E  E  E  E     E  E  E  E  E  E  E  E
--------------------------|--------------------------|
--------------------------|--------------------------|
--------------------------|--------------------------|
--------------------------|--------------------------|
--------------------------|--------------------------|
--0--0-----0--0--0--0--0--|--0--0-----0--0--0--0--0--|


  E  E  E  E  E  E  E  E     E  E  E  E  E  E  E  E
--------------------------|--------------------------|
--------------------------|--------------------------|
--------------5--5--5--5--|--------------------------|
--------------5--5--5--5--|--3--3-----3--3--3--------|
--------------3--3--3--3--|--3--3-----3--3--3-----3--|
--0--0-----0--------------|--3--3-----3--3--3--3--L--|


  E  E  E  E  E  E  E  E     E  E  E  E  E  E  E  E
--------------------------|--------------------------|
--------------------------|--------------------------|
--------------------------|--------------------------|
--3--3-----3--3--3--------|--3--3-----3--3--3--------|
--3--3-----3--3--3-----3--|--3--3-----3--3--3-----3--|
--3--3-----3--3--3--3--L--|--3--3-----3--3--3--3--L--|


  E  E  E  E  E  E  E  E     E  E  E  E  E  E  E  E
--------------------------|--------------------------|
--------------------------|--------------------------|
--------------------------|--------------------------|
--3--3-----3--1--1--1--1--|--0--0-----0--0--0--0--0--|
--3--3-----3--1--1--1--1--|--0--0-----0--0--0--0--0--|
--3--3-----3--1--1--1--1--|--0--0-----0--0--0--0--0--|


  E  E  E  E  E  E  E  E     E  E  E  E  E  E  E  E
--------------------------|--------------------------|
--------------------------|--------------------------|
--------------------------|--------------------------|
--0--0-----0--0--0--0--0--|--0--0-----0--0--0--0--0--|
--0--0-----0--0--0--0--0--|--0--0-----0--0--0--0--0--|
--0--0-----0--0--0--0--0--|--0--0-----0--0--0--0--0--|


  E  E  E  E  E  E  E  E     W                   H        E   E   E  E
--------------------------|-------------------|-------------------------|
--------------------------|-------------------|-------------------------|
--------------------------|-------------------|-------------------------|
--0--0-----0--1--3--3--4--|--8----------------|--L--------8--10--10--8--|
--0--0-----0--1--3--3--4--|--8----------------|--L--------8--10--10--8--|
--0--0-----0--1--3--3--4--|--8----------------|--L--------8--10--10--8--|


  Q    E  Q    E  Q       W                   W
-----------------------|-------------------|-------------------|
------------------3----|--L----------------|-------------------|
------------------2----|--L----------------|-------------------|
--7----L--0----L--0----|--L----------------|--8----------------|
--7----L--0----L--0----|--L----------------|--8----------------|
--7----L--0----L--0----|--L----------------|--8----------------|


  H        E   E   E  E     W                   E  E  E  E  E  E  E  E
-------------------------|-------------------|--------------------------|
-------------------------|-------------------|--------------------------|
-------------------------|-------------------|--2--3--3--5--5--7--7--8--|
--L--------8--10--10--8--|--7----------------|--2--3--3--5--5--7--7--8--|
--L--------8--10--10--8--|--7----------------|--0--1--1--3--3--5--5--6--|
--L--------8--10--10--8--|--7----------------|--------------------------|


  E  E  E  E  E  E  E  E     E  E  E  E  E  E  E  E
--------------------------|--------------------------|
--------------------------|--------------------------|
--7--7--7--7--5--5--5--5--|--8--8--8--8--------------|
--7--7--7--7--5--5--5--5--|--8--8--8--8--8--8--8--8--|
--5--5--5--5--3--3--3--3--|--6--6--6--6--8--8--8--8--|
--------------------------|--------------8--8--8--8--|


  E  E  E  E  E  E  E  E     E  E  E  E  E  E  E  E
--------------------------|--------------------------|
--------------------------|--------------------------|
--7--7--7--7--5--5--5--5--|--------------------------|
--7--7--7--7--5--5--5--5--|--7--7--8--8--7--7--7--7--|
--5--5--5--5--3--3--3--3--|--7--7--8--8--7--7--7--7--|
--------------------------|--7--7--8--8--7--7--7--7--|


  E  E  E  E  E  E  E  E     E  E  E  E  E  E  E  E
--------------------------|--------------------------|
--------------------------|--------------------------|
--7--7--7--7--5--5--5--5--|--8--8--8--8--------------|
--7--7--7--7--5--5--5--5--|--8--8--8--8--8--8--8--8--|
--5--5--5--5--3--3--3--3--|--6--6--6--6--8--8--8--8--|
--------------------------|--------------8--8--8--8--|


  E  Q     E  E  E  E  E     E  E  E  E  E  E  E  E
--------------------------|--------------------------|
--------------------------|--------------------------|
--------------------------|--------------------------|
--7--L\-------------------|--------------------------|
--7--L\-------------------|--------------------------|
--7--L\----0--3--0--2--0--|--1--0-----0--1--4--1--0--|


  E  E  E  E  E  E  E  E     E  E  E  E  E  E  E  E
--------------------------|--------------------------|
--------------------------|--------------------------|
--------------------------|--------------------------|
--------------------------|--------------------------|
--------------3--0--------|--------------------------|
--1--0-----0--------1--0--|--1--0-----0--1--4--1--0--|


  E  E  E  E  E  E  E  E     E  E  E  E  E  E  E  E
--------------------------|--------------------------|
--------------------------|--------------------------|
--------------------------|--------------------------|
--------------1--3--3--4--|--------------------------|
--------------1--3--3--4--|--------------------------|
--1--0-----0--1--3--3--4--|--1--0-----0--1--4--1--0--|


  E  E  E  E  E  E  E  E     E  E  E  E  E  E  E  E
--------------------------|--------------------------|
--------------------------|--------------------------|
--------------------------|--------------------------|
--------------------------|--------------------------|
--------------3--0--------|--------------------------|
--1--0-----0--------1--0--|--1--0-----0--1--4--1--0--|


  E  E  E  E  E  E  E  E
--------------------------|
--------------------------|
--------------------------|
--------------1--3--3--4--|
--------------1--3--3--4--|
--1--0-----0--1--3--3--4--|


   |--3--|  |--3--|  3  3     |--3--|  |--3--|  3     |--3--|  |--3--|
   S  S  S  S  S  S  S  S  S  S  S  S  S  S  S  S  S  S  S  S  S  S  S
--10-13-10----------------10-13-10----------------10-13-10----------10-|
-----------11-10-11-10-11----------11-10-11-10-11----------11-10-11----|
-----------------------------------------------------------------------|
-----------------------------------------------------------------------|
-----------------------------------------------------------------------|
-----------------------------------------------------------------------|


   |--3--|  |--3--|  |--3--|  |--3--|
   S  S  S  S  S  S  S  S  S  S  S  S  H
--13-10----------10-13-10------------------------|
--------11-10-11----------11-10-11-10-11b--------|
-------------------------------------------------|
-------------------------------------------------|
-------------------------------------------------|
-------------------------------------------------|


              |---3---|   |---3---|   |---3---|   |---3---|
   H          S   S   S   S   S   S   S   S   S   S   S   S
-------------------------------------------------------------|
--13b--------13b-13b-13b-13b-13b-13b-13b-13b-13b-13b-13b-13b-|
-------------------------------------------------------------|
-------------------------------------------------------------|
-------------------------------------------------------------|
-------------------------------------------------------------|


   E   S S  S  S  S  S  S  S  S  S  E  E
-------------------------------------------|
--13\--L-----------------------------------|
-----------------10-12-14-12-10----10--L\--|
---------8-10-12----------------14---------|
-------------------------------------------|
-------------------------------------------|


   PM  PM            PM  PM               PM  PM
   E   E   S  S  E   E   E   S  S  E      E   E   E   E   H
--------------------------------------|-----------------------------|
--------------------------------------|-----------------------------|
----------10-12-10----------10-12-10--|----------10--12--12b--------|
--10--12------------10--12------------|--10--12---------------------|
--------------------------------------|-----------------------------|
--------------------------------------|-----------------------------|


   T  T  T  T  T  T  T  T  T  T  T  T  T  T  T  T  T  T  T  T  T  T  T  T  T  T
--------------------------------------------------------------------------------|
--------------------------------------------------------------------------------|
--17-17-14-14-12-12-14-14-17-17-14-14-12-12-14-14-17-17-14-14-12-12-14-14-17-17-|
--------------------------------------------------------------------------------|
--------------------------------------------------------------------------------|
--------------------------------------------------------------------------------|


   |--3--|                 |--3--|  |--3--|  |--3--|  |--3--|
   S  S  S  S  S  S  S  S  S  S  S  S  S  S  S  S  S  S  S  S  S
--13-15-13-------------------------15-17-15----------------15-17-|
-----------17-15-13-15-17-15-17-18----------18-17-15-17-18-------|
-----------------------------------------------------------------|
-----------------------------------------------------------------|
-----------------------------------------------------------------|
-----------------------------------------------------------------|


   W                   H        E   E   E  E     Q    E  Q    E  Q
--18----------------|--L----------------------|-----------------------|
--------------------|-------------------------|------------------3----|
--------------------|-------------------------|------------------2----|
--------------------|-----------8--10--10--8--|--7----L--0----L--0----|
--------------------|-----------8--10--10--8--|--7----L--0----L--0----|
--------------------|-----------8--10--10--8--|--7----L--0----L--0----|


  W                   W                   H        E   E   E  E
-------------------|-------------------|-------------------------|
--L----------------|-------------------|-------------------------|
--L----------------|-------------------|-------------------------|
--L----------------|--8----------------|--L--------8--10--10--8--|
--L----------------|--8----------------|--L--------8--10--10--8--|
--L----------------|--8----------------|--L--------8--10--10--8--|


  W                   E  E  E  E  E  E  E  E     E  E  E  E  E  E  E  E
-------------------|--------------------------|--------------------------|
-------------------|--------------------------|--------------------------|
-------------------|--2--3--3--5--5--7--7--8--|--7--7--7--7--5--5--5--5--|
--7----------------|--2--3--3--5--5--7--7--8--|--7--7--7--7--5--5--5--5--|
--7----------------|--0--1--1--3--3--5--5--6--|--5--5--5--5--3--3--3--3--|
--7----------------|--------------------------|--------------------------|


  E  E  E  E  E  E  E  E     E  E  E  E  E  E  E  E
--------------------------|--------------------------|
--------------------------|--------------------------|
--8--8--8--8--------------|--7--7--7--7--5--5--5--5--|
--8--8--8--8--8--8--8--8--|--7--7--7--7--5--5--5--5--|
--6--6--6--6--8--8--8--8--|--5--5--5--5--3--3--3--3--|
--------------8--8--8--8--|--------------------------|


  E  E  E  E  E  E  E  E     E  E  E  E  E  E  E  E
--------------------------|--------------------------|
--------------------------|--------------------------|
--------------------------|--7--7--7--7--5--5--5--5--|
--7--7--8--8--7--7--7--7--|--7--7--7--7--5--5--5--5--|
--7--7--8--8--7--7--7--7--|--5--5--5--5--3--3--3--3--|
--7--7--8--8--7--7--7--7--|--------------------------|


  E  E  E  E  E  E  E  E     E  E  E  E  E  E  E  E
--------------------------|--------------------------|
--------------------------|--------------------------|
--8--8--8--8--------------|--------------------------|
--8--8--8--8--8--8--8--8--|--7--7--7--7--7--7--7--7--|
--6--6--6--6--8--8--8--8--|--7--7--7--7--7--7--7--7--|
--------------8--8--8--8--|--7--7--7--7--7--7--7--7--|


  E  E  E  E  E  E  E  E     E  E  E  E  E  E  E  E
--------------------------|--------------------------|
--------------------------|--------------------------|
--2--3--3--5--5--7--7--8--|--7--7--7--7--5--5--5--5--|
--2--3--3--5--5--7--7--8--|--7--7--7--7--5--5--5--5--|
--0--1--1--3--3--5--5--6--|--5--5--5--5--3--3--3--3--|
--------------------------|--------------------------|


  E  E  E  E  E  E  E  E     E  E  E  E  E  E  E  E
--------------------------|--------------------------|
--------------------------|--------------------------|
--8--8--8--8--------------|--7--7--7--7--5--5--5--5--|
--8--8--8--8--8--8--8--8--|--7--7--7--7--5--5--5--5--|
--6--6--6--6--8--8--8--8--|--5--5--5--5--3--3--3--3--|
--------------8--8--8--8--|--------------------------|


  E  E  E  E  E  E  E  E     E  E  E  E  E  E  E  E
--------------------------|--------------------------|
--------------------------|--------------------------|
--------------------------|--7--7--7--7--5--5--5--5--|
--7--7--8--8--7--7--7--7--|--7--7--7--7--5--5--5--5--|
--7--7--8--8--7--7--7--7--|--5--5--5--5--3--3--3--3--|
--7--7--8--8--7--7--7--7--|--------------------------|


  E  E  E  E  E  E  E  E     E  E  E  E  E  E  E  E
--------------------------|--------------------------|
--------------------------|--------------------------|
--8--8--8--8--------------|--------------------------|
--8--8--8--8--8--8--8--8--|--7-----------------------|
--6--6--6--6--8--8--8--8--|--7-----------------------|
--------------8--8--8--8--|--7-----------------------|


  E  E  E  E  E  E  E  E     E  E  E  E  E  E  E  E
--------------------------|--------------------------|
--------------------------|--------------------------|
--------------------------|--------------------------|
--------------------------|--------------------------|
--------------------------|--------------3--0--------|
--1--0-----0--1--4--1--0--|--1--0-----0--------1--0--|


  E  E  E  E  E  E  E  E     E  E  E  E  E  E  E  E
--------------------------|--------------------------|
--------------------------|--------------------------|
--------------------------|--------------------------|
--------------------------|--------------1--3--3--4--|
--------------------------|--------------1--3--3--4--|
--1--0-----0--1--4--1--0--|--1--0-----0--1--3--3--4--|


  E  E  E  E  E  E  E  E     E  E  E  E  E  E  E  E
--------------------------|--------------------------|
--------------------------|--------------------------|
--------------------------|--------------------------|
--------------------------|--------------------------|
--------------------------|--------------3--0--------|
--1--0-----0--1--4--1--0--|--1--0-----0--------1--0--|


  E  E  E  E  E  E  E  E     E  E  E  E  E  E  E  E     W
--------------------------|--------------------------|-------------------|
--------------------------|--------------------------|-------------------|
--------------------------|--------------------------|--7----------------|
--------------------------|--------------1--3--3--4--|--7----------------|
--------------------------|--------------1--3--3--4--|--5----------------|
--1--0-----0--1--4--1--0--|--1--0-----0--1--3--3--4--|-------------------|


  W                   W                   W                   W
-------------------|-------------------|-------------------|-------------------|
-------------------|-------------------|-------------------|-------------------|
--L----------------|--6----------------|--L----------------|--5----------------|
--L----------------|--6----------------|--L----------------|--5----------------|
--L----------------|--4----------------|--L----------------|--3----------------|
-------------------|-------------------|-------------------|-------------------|


  W                   W                   W                   W
-------------------|-------------------|-------------------|-------------------|
-------------------|-------------------|-------------------|-------------------|
--L----------------|--4----------------|--L----------------|--3----------------|
--L----------------|--4----------------|--L----------------|--3----------------|
--L----------------|--2----------------|--L----------------|--1----------------|
-------------------|-------------------|-------------------|-------------------|


  W                   W                   W                   W
-------------------|-------------------|-------------------|-------------------|
-------------------|-------------------|-------------------|-------------------|
--L----------------|--2----------------|--L----------------|-------------------|
--L----------------|--2----------------|--L----------------|--6----------------|
--L----------------|--0----------------|--L----------------|--6----------------|
-------------------|-------------------|-------------------|--6----------------|


  W                   W                   W                   W
-------------------|-------------------|-------------------|-------------------|
-------------------|-------------------|-------------------|-------------------|
-------------------|-------------------|-------------------|-------------------|
--L----------------|--5----------------|--L----------------|--0----------------|
--L----------------|--5----------------|--L----------------|--0----------------|
--L----------------|--5----------------|--L----------------|--0----------------|


  W                   W                   W
-------------------|-------------------|-------------------||
-------------------|-------------------|-------------------||
-------------------|-------------------|-------------------||
--L----------------|--L----------------|--L----------------||
--L----------------|--L----------------|--L----------------||
--L----------------|--L----------------|--L----------------||


Guitar 2

      S S S S S S S S E  E   Q       S S S S S S S S E  E   Q
D#||------------------------------|------------------------------|
A#||------------------------------|------------------------------|
F#||--7-7-7-7-7-7-7-7-7--L\-------|--7-7-7-7-7-7-7-7-7--L\-------|
C#||--7-7-7-7-7-7-7-7-7--L\--0----|--7-7-7-7-7-7-7-7-7--L\--0----|
G#||--5-5-5-5-5-5-5-5-5--L\--0----|--5-5-5-5-5-5-5-5-5--L\--0----|
C#||-------------------------0----|-------------------------0----|


  S S S S S S S S E  E   Q       S S S S S S S S E  E   Q
------------------------------|------------------------------|
------------------------------|------------------------------|
--7-7-7-7-7-7-7-7-7--L\-------|--7-7-7-7-7-7-7-7-7--L\-------|
--7-7-7-7-7-7-7-7-7--L\--0----|--7-7-7-7-7-7-7-7-7--L\--0----|
--5-5-5-5-5-5-5-5-5--L\--0----|--5-5-5-5-5-5-5-5-5--L\--0----|
-------------------------0----|-------------------------0----|


   S  S  S  S  S  S  S  S  E  E   Q        S  S  S  S  S  S  S  S  E  E   Q
---------------------------------------|---------------------------------------|
---------------------------------------|---------------------------------------|
--10-10-10-10-10-10-10-10-10--L\-------|--10-10-10-10-10-10-10-10-10--L\-------|
---x--x--x--x--x--x--x--x--x------0----|---x--x--x--x--x--x--x--x--x------0----|
---8--8--8--8--8--8--8--8--8--L\--0----|---8--8--8--8--8--8--8--8--8--L\--0----|
----------------------------------0----|----------------------------------0----|


   S  S  S  S  S  S  S  S  E  E   Q
---------------------------------------|
---------------------------------------|
--10-10-10-10-10-10-10-10-10--L\-------|
---x--x--x--x--x--x--x--x--x------0----|
---8--8--8--8--8--8--8--8--8--L\--0----|
----------------------------------0----|


   S  S  S  S S S S S  S  S  S  S  S  S  S  S    W
----------------------------------------------|-------------------|
----------------------------------------------|-------------------|
--10-10-10-10-9-9-9-9-10-10-10-12-10-10-10-10-|--7----------------|
---x--x--x--x-x-x-x-x--x--x--x--x--x--x--x--x-|--x----------------|
---8--8--8--8-7-7-7-7--8--8--8-10--8--8--8--8-|--5----------------|
----------------------------------------------|-------------------|


  W                   W                   H        E  E  E  E
-------------------|-------------------|-----------------------|
-------------------|-------------------|-----------------------|
--L----------------|--L----------------|--L--------------------|
-------------------|-------------------|-----------1--3--3--4--|
--L----------------|--L----------------|--L--------1--3--3--4--|
-------------------|-------------------|-----------1--3--3--4--|


  W                   W                   W
-------------------|-------------------|-------------------|
-------------------|-------------------|-------------------|
-------------------|-------------------|-------------------|
--0----------------|--L----------------|--L----------------|
--0----------------|--L----------------|--L----------------|
--0----------------|--L----------------|--L----------------|


  H        E  E  E  E     E  E  E  E  E  E  E  E     E  E  E  E  E  E  E  E
-----------------------|--------------------------|--------------------------|
-----------------------|--------------------------|--------------------------|
-----------------------|--------------------------|--------------------------|
--L--------1--3--3--4--|--------------------------|--------------------------|
--L--------1--3--3--4--|--------------------------|--------------3--0--------|
--L--------1--3--3--4--|--1--0-----0--1--4--1--0--|--1--0-----0--------1--0--|


  E  E  E  E  E  E  E  E     E  E  E  E  E  E  E  E
--------------------------|--------------------------|
--------------------------|--------------------------|
--------------------------|--------------------------|
--------------------------|--------------1--3--3--4--|
--------------------------|--------------1--3--3--4--|
--1--0-----0--1--4--1--0--|--1--0-----0--1--3--3--4--|


  E  E  E  E  E  E  E  E     E  E  E  E  E  E  E  E
--------------------------|--------------------------|
--------------------------|--------------------------|
--------------------------|--------------------------|
--------------------------|--------------------------|
--------------------------|--------------3--0--------|
--1--0-----0--1--4--1--0--|--1--0-----0--------1--0--|


  E  E  E  E  E  E  E  E     E  E  E  E  E  E  E  E
--------------------------|--------------------------|
--------------------------|--------------------------|
--------------------------|--------------------------|
--------------------------|--------------1--3--3--4--|
--------------------------|--------------1--3--3--4--|
--1--0-----0--1--4--1--0--|--1--0-----0--1--3--3--4--|


  E  E  E  E  E  E  E  E     E  E  E  E  E  E  E  E
--------------------------|--------------------------|
--------------------------|--------------------------|
--7--7-----7--7--7--7--8--|--7--7-----7--7--7--7--8--|
--x--x-----x--x--x--x--x--|--x--x-----x--x--x--x--x--|
--5--5-----5--5--5--5--6--|--5--5-----5--5--5--5--6--|
--------------------------|--------------------------|


  E  E  E  E  E  E  E  E     E  E  E  E  E  E  E  E
--------------------------|--------------------------|
--------------------------|--------------------------|
--7--7-----7--7--7--7--8--|--7--7-----7--5--5--5--5--|
--x--x-----x--x--x--x--x--|--x--x-----x--x--x--x--x--|
--5--5-----5--5--5--5--6--|--5--5-----5--3--3--3--3--|
--------------------------|--------------------------|


  E  E  E  E  E  E  E   E     E  E  E  E  E  E  E   E
---------------------------|---------------------------|
---------------------------|---------------------------|
--7--7-----7--7--7--8--10--|--7--7-----7--7--7--8--10--|
--x--x-----x--x--x--x---x--|--x--x-----x--x--x--x---x--|
--5--5-----5--5--5--6---8--|--5--5-----5--5--5--6---8--|
---------------------------|---------------------------|


  E  E  E  E  E  E  E   E     E  E  E  E  E  E  E  E
---------------------------|--------------------------|
---------------------------|--------------------------|
--7--7-----7--7--7--8--10--|--7--7-----7--5--5--5--5--|
--x--x-----x--x--x--x---x--|--x--x-----x--x--x--x--x--|
--5--5-----5--5--5--6---8--|--5--5-----5--3--3--3--3--|
---------------------------|--------------------------|


  E  E  E  E  E  E  E  E     E  E  E  E  E  E  E  E
--------------------------|--------------------------|
--------------------------|--------------------------|
--------------------------|--------------------------|
--3--3-----3--3--3--------|--3--3-----3--3--3--------|
--3--3-----3--3--3-----3--|--3--3-----3--3--3-----3--|
--3--3-----3--3--3--3--L--|--3--3-----3--3--3--3--L--|


  E  E  E  E  E  E  E  E     E  E  E  E  E  E  E  E
--------------------------|--------------------------|
--------------------------|--------------------------|
--------------------------|--------------------------|
--3--3-----3--3--3--------|--3--3-----3--1--1--1--1--|
--3--3-----3--3--3-----3--|--3--3-----3--1--1--1--1--|
--3--3-----3--3--3--3--L--|--3--3-----3--1--1--1--1--|


  E  E  E  E  E  E  E  E     E  E  E  E  E  E  E  E
--------------------------|--------------------------|
--------------------------|--------------------------|
--------------------------|--------------------------|
--0--0-----0--0--0--0--0--|--0--0-----0--0--0--0--0--|
--0--0-----0--0--0--0--0--|--0--0-----0--0--0--0--0--|
--0--0-----0--0--0--0--0--|--0--0-----0--0--0--0--0--|


                                                                  ^
  E  E  E  E  E  E  E  E     E  E  E  E  E  E  E  E     H         H
--------------------------|--------------------------|---------------------|
--------------------------|--------------------------|---------------------|
--------------------------|--------------------------|-----------10--------|
--0--0-----0--0--0--0--0--|--0--0-----0--1--3--3--4--|--8--------10--------|
--0--0-----0--0--0--0--0--|--0--0-----0--1--3--3--4--|--8---------8--------|
--0--0-----0--0--0--0--0--|--0--0-----0--1--3--3--4--|--8---------8--------|


  H        E   E   E  E      Q    E  Q    E   Q
-------------------------|-------------------------|
-------------------------|--10----L----------------|
--L----------------------|---x-------7----L--12----|
--L--------8--10--10--8--|---7----L--x----L---x----|
--L--------8--10--10--8--|-----------5----L--10----|
--L--------8--10--10--8--|-------------------------|


  E   E   E  E  E  E  E  E      W                   H         E   E   E   E
----------------------------|--------------------|---------------------------|
----------------------------|--11----------------|--L--------11--13--13--11--|
--L--10--10--9--9--7--7--7--|---x----------------|------------x---x---x---x--|
------x---x--x--x--x--x--x--|---8----------------|--L---------8--10--10---8--|
--L---8---8--7--7--5--5--5--|--------------------|---------------------------|
----------------------------|--------------------|---------------------------|


   W                   E  E  E  E  E   E   E   E
--------------------|-----------------------------|
--10----------------|-----------------------------|
---x----------------|--5--7--7--8--8--10--10--12--|
---7----------------|--x--x--x--x--x---x---x---x--|
--------------------|--3--5--5--6--6---8---8--10--|
--------------------|-----------------------------|


   E   E   E   E  E  E  E  E      E   E   E   E   E   E   E   E
------------------------------|----------------------------------|
--10--10--10--10--8--8--8--8--|--11--11--11--11------------------|
---x---x---x---x--x--x--x--x--|---x---x---x---x--10--10--10--10--|
---7---7---7---7--5--5--5--5--|---8---8---8---8---x---x---x---x--|
------------------------------|-------------------8---8---8---8--|
------------------------------|----------------------------------|


   E   E   E   E  E  E  E  E     E  E   E   E  E  E  E  E
------------------------------|----------------------------|
--10--10--10--10--8--8--8--8--|----------------------------|
---x---x---x---x--x--x--x--x--|--9--9--10--10--9--9--9--9--|
---7---7---7---7--5--5--5--5--|--x--x---x---x--x--x--x--x--|
------------------------------|--7--7---8---8--7--7--7--7--|
------------------------------|----------------------------|


   E   E   E   E  E  E  E  E      E   E   E   E   E   E   E   E
------------------------------|----------------------------------|
--10--10--10--10--8--8--8--8--|--11--11--11--11------------------|
---x---x---x---x--x--x--x--x--|---x---x---x---x--10--10--10--10--|
---7---7---7---7--5--5--5--5--|---8---8---8---8---x---x---x---x--|
------------------------------|-------------------8---8---8---8--|
------------------------------|----------------------------------|


   E  Q     E  E  E  E  E     E  E  E  E  E  E  E  E
---------------------------|--------------------------|
--10--L\-------------------|--------------------------|
---x-----------------------|--------------------------|
---7--L\-------------------|--------------------------|
---------------------------|--------------------------|
------------0--3--0--2--0--|--1--0-----0--1--4--1--0--|


  E  E  E  E  E  E  E  E     E  E  E  E  E  E  E  E
--------------------------|--------------------------|
--------------------------|--------------------------|
--------------------------|--------------------------|
--------------------------|--------------------------|
--------------3--0--------|--------------------------|
--1--0-----0--------1--0--|--1--0-----0--1--4--1--0--|


  E  E  E  E  E  E  E  E     E  E  E  E  E  E  E  E
--------------------------|--------------------------|
--------------------------|--------------------------|
--------------------------|--7--7-----7--7--7--7--8--|
--------------1--3--3--4--|--x--x-----x--x--x--x--x--|
--------------1--3--3--4--|--5--5-----5--5--5--5--6--|
--1--0-----0--1--3--3--4--|--------------------------|


  E  E  E  E  E  E  E  E     E  E  E  E  E  E  E  E
--------------------------|--------------------------|
--------------------------|--------------------------|
--7--7-----7--7--7--7--8--|--7--7-----7--7--7--7--8--|
--x--x-----x--x--x--x--x--|--x--x-----x--x--x--x--x--|
--5--5-----5--5--5--5--6--|--5--5-----5--5--5--5--6--|
--------------------------|--------------------------|


  E  E  E  E  E  E  E  E     E  E  E  E  E  E  E   E
--------------------------|---------------------------|
--------------------------|---------------------------|
--7--7-----7--5--5--5--5--|--7--7-----7--7--7--8--10--|
--x--x-----x--x--x--x--x--|--x--x-----x--x--x--x---x--|
--5--5-----5--3--3--3--3--|--5--5-----5--5--5--6---8--|
--------------------------|---------------------------|


  E  E  E  E  E  E  E   E     E  E  E  E  E  E  E   E
---------------------------|---------------------------|
---------------------------|---------------------------|
--7--7-----7--7--7--8--10--|--7--7-----7--7--7--8--10--|
--x--x-----x--x--x--x---x--|--x--x-----x--x--x--x---x--|
--5--5-----5--5--5--6---8--|--5--5-----5--5--5--6---8--|
---------------------------|---------------------------|


  E  E  E  E  E  E  E  E     E  E  E  E  E  E  E  E
--------------------------|--------------------------|
--------------------------|--------------------------|
--7--7-----7--5--5--5--5--|--------------------------|
--x--x-----x--x--x--x--x--|--3--3-----3--3--3--------|
--5--5-----5--3--3--3--3--|--3--3-----3--3--3-----3--|
--------------------------|--3--3-----3--3--3--3--L--|


  E  E  E  E  E  E  E  E     E  E  E  E  E  E  E  E
--------------------------|--------------------------|
--------------------------|--------------------------|
--------------------------|--------------------------|
--3--3-----3--3--3--------|--3--3-----3--3--3--------|
--3--3-----3--3--3-----3--|--3--3-----3--3--3-----3--|
--3--3-----3--3--3--3--L--|--3--3-----3--3--3--3--L--|


  E  E  E  E  E  E  E  E     E  E  E  E  E  E  E  E
--------------------------|--------------------------|
--------------------------|--------------------------|
--------------------------|--------------------------|
--3--3-----3--1--1--1--1--|--0--0-----0--0--0--0--0--|
--3--3-----3--1--1--1--1--|--0--0-----0--0--0--0--0--|
--3--3-----3--1--1--1--1--|--0--0-----0--0--0--0--0--|


  E  E  E  E  E  E  E  E     E  E  E  E  E  E  E  E
--------------------------|--------------------------|
--------------------------|--------------------------|
--------------------------|--------------------------|
--0--0-----0--0--0--0--0--|--0--0-----0--0--0--0--0--|
--0--0-----0--0--0--0--0--|--0--0-----0--0--0--0--0--|
--0--0-----0--0--0--0--0--|--0--0-----0--0--0--0--0--|


                                       ^
  E  E  E  E  E  E  E  E     H         H           H        E   E   E  E
--------------------------|---------------------|-------------------------|
--------------------------|---------------------|-------------------------|
--------------------------|-----------10--------|--L----------------------|
--0--0-----0--1--3--3--4--|--8--------10--------|--L--------8--10--10--8--|
--0--0-----0--1--3--3--4--|--8---------8--------|--L--------8--10--10--8--|
--0--0-----0--1--3--3--4--|--8---------8--------|--L--------8--10--10--8--|


   Q    E  Q    E   Q       E   E   E  E  E  E  E  E      W
-------------------------|----------------------------|--------------------|
--10----L----------------|----------------------------|--11----------------|
---x-------7----L--12----|--L--10--10--9--9--7--7--7--|---x----------------|
---7----L--x----L---x----|------x---x--x--x--x--x--x--|---8----------------|
-----------5----L--10----|--L---8---8--7--7--5--5--5--|--------------------|
-------------------------|----------------------------|--------------------|


  H         E   E   E   E      W                   E  E  E  E  E   E   E   E
---------------------------|--------------------|-----------------------------|
--L--------11--13--13--11--|--10----------------|-----------------------------|
------------x---x---x---x--|---x----------------|--5--7--7--8--8--10--10--12--|
--L---------8--10--10---8--|---7----------------|--x--x--x--x--x---x---x---x--|
---------------------------|--------------------|--3--5--5--6--6---8---8--10--|
---------------------------|--------------------|-----------------------------|


   E   E   E   E  E  E  E  E      E   E   E   E   E   E   E   E
------------------------------|----------------------------------|
--10--10--10--10--8--8--8--8--|--11--11--11--11------------------|
---x---x---x---x--x--x--x--x--|---x---x---x---x--10--10--10--10--|
---7---7---7---7--5--5--5--5--|---8---8---8---8---x---x---x---x--|
------------------------------|-------------------8---8---8---8--|
------------------------------|----------------------------------|


   E   E   E   E  E  E  E  E     E  E   E   E  E  E  E  E
------------------------------|----------------------------|
--10--10--10--10--8--8--8--8--|----------------------------|
---x---x---x---x--x--x--x--x--|--9--9--10--10--9--9--9--9--|
---7---7---7---7--5--5--5--5--|--x--x---x---x--x--x--x--x--|
------------------------------|--7--7---8---8--7--7--7--7--|
------------------------------|----------------------------|


   E   E   E   E  E  E  E  E      E   E   E   E   E   E   E   E
------------------------------|----------------------------------|
--10--10--10--10--8--8--8--8--|--11--11--11--11------------------|
---x---x---x---x--x--x--x--x--|---x---x---x---x--10--10--10--10--|
---7---7---7---7--5--5--5--5--|---8---8---8---8---x---x---x---x--|
------------------------------|-------------------8---8---8---8--|
------------------------------|----------------------------------|


   E  Q     E  E  E  E  E      Q     E   Q     E   Q
---------------------------|-----------------------------|
--10--L\-------------------|--15-----L--15-----L--15-----|
---x-----------------------|--17b----L--17b----L--17b----|
---7--L\-------------------|-----------------------------|
---------------------------|-----------------------------|
---------------------------|-----------------------------|


                        |--3--|
   Q      E   H         S  S  S
-----------------------------13-|
--15----------------------15----|
--17b----17--17--------17-------|
--------------------------------|
--------------------------------|
--------------------------------|


   |--3--|  |--3--|  |--3--|  |--3--|
   S  S  S  S  S  S  S  S  S  S  S  S  S  S  S  S  S  S  E
--15-13-----------------------------------------------------|
--------15-15-13-11-15-13-11--------------------------------|
-----------------------------15-14-12-14-12----14-12--------|
--------------------------------------------15-------15-15--|
------------------------------------------------------------|
------------------------------------------------------------|


   H        Q      E   E      E   E   E   Q     E   E   E
--------------------------|--------------------------------|
----------------------10--|--11--13--11--10------------13--|
-----------------/10------|--------------------10--14------|
---L----------------------|--------------------------------|
--------------------------|--------------------------------|
--------------------------|--------------------------------|


                         |--3--|  |--3--|
   E   E   E   Q     E   S  S  S  S  S  S
--13--15--13--12----12--17-13-12-15-13-12-|
------------------------------------------|
------------------------------------------|
------------------------------------------|
------------------------------------------|
------------------------------------------|


   |--3--|  |--3--|  |--3--|  |--3--|  |--3--|  |--3--|  |--3--|  |--3--|
   S  S  S  S  S  S  S  S  S  S  S  S  S  S  S  S  S  S  S  S  S  S  S  S
--13-12-10----------10-12-13-17-13-12-10-12-13-12-10----------------------|
-----------13-12-13----------------------------------13-11-10-11-13-11-10-|
--------------------------------------------------------------------------|
--------------------------------------------------------------------------|
--------------------------------------------------------------------------|
--------------------------------------------------------------------------|


   E   E   E   E   E   E   E   E      E  Q     E  E  E  E  E
----------------------------------|---------------------------|
--15------13----------------------|---------------------------|
------------------14------12--14--|--14--L\-------------------|
------12------12------12----------|---------------------------|
----------------------------------|---------------------------|
----------------------------------|------------0--1--4--1--0--|


  E  E  E  E  E  E  E  E     E  E  E  E  E  E  E  E
--------------------------|--------------------------|
--------------------------|--------------------------|
--------------------------|--------------------------|
--------------------------|--------------------------|
--------------3--0--------|--------------------------|
--1--0-----0--------1--0--|--1--0-----0--1--4--1--0--|


  E  E  E  E  E  E  E  E     E  E  E  E  E  E  E  E
--------------------------|--------------------------|
--------------------------|--------------------------|
--------------------------|--------------------------|
--------------1--3--3--4--|--------------------------|
--------------1--3--3--4--|--------------------------|
--1--0-----0--1--3--3--4--|--1--0-----0--1--4--1--0--|


  E  E  E  E  E  E  E  E     E  E  E  E  E  E  E  E
--------------------------|--------------------------|
--------------------------|--------------------------|
--------------------------|--------------------------|
--------------------------|--------------------------|
--------------3--0--------|--------------------------|
--1--0-----0--------1--0--|--1--0-----0--1--4--1--0--|


                                       ^
  E  E  E  E  E  E  E  E     H         H           H        E   E   E  E
--------------------------|---------------------|-------------------------|
--------------------------|---------------------|-------------------------|
--------------------------|-----------10--------|--L----------------------|
--------------1--3--3--4--|--8--------10--------|--L--------8--10--10--8--|
--------------1--3--3--4--|--8---------8--------|--L--------8--10--10--8--|
--1--0-----0--1--3--3--4--|--8---------8--------|--L--------8--10--10--8--|


   Q    E  Q    E   Q       E   E   E  E  E  E  E  E      W
-------------------------|----------------------------|--------------------|
--10----L----------------|----------------------------|--11----------------|
---x-------7----L--12----|--L--10--10--9--9--7--7--7--|---x----------------|
---7----L--x----L---x----|------x---x--x--x--x--x--x--|---8----------------|
-----------5----L--10----|--L---8---8--7--7--5--5--5--|--------------------|
-------------------------|----------------------------|--------------------|


  H         E   E   E   E      W                   E  E  E  E  E   E   E   E
---------------------------|--------------------|-----------------------------|
--L--------11--13--13--11--|--10----------------|-----------------------------|
------------x---x---x---x--|---x----------------|--5--7--7--8--8--10--10--12--|
--L---------8--10--10---8--|---7----------------|--x--x--x--x--x---x---x---x--|
---------------------------|--------------------|--3--5--5--6--6---8---8--10--|
---------------------------|--------------------|-----------------------------|


   E   E   E   E  E  E  E  E      E   E   E   E   E   E   E   E
------------------------------|----------------------------------|
--10--10--10--10--8--8--8--8--|--11--11--11--11------------------|
---x---x---x---x--x--x--x--x--|---x---x---x---x--10--10--10--10--|
---7---7---7---7--5--5--5--5--|---8---8---8---8---x---x---x---x--|
------------------------------|-------------------8---8---8---8--|
------------------------------|----------------------------------|


   E   E   E   E  E  E  E  E     E  E   E   E  E  E  E  E
------------------------------|----------------------------|
--10--10--10--10--8--8--8--8--|----------------------------|
---x---x---x---x--x--x--x--x--|--9--9--10--10--9--9--9--9--|
---7---7---7---7--5--5--5--5--|--x--x---x---x--x--x--x--x--|
------------------------------|--7--7---8---8--7--7--7--7--|
------------------------------|----------------------------|


   E   E   E   E  E  E  E  E      E   E   E   E   E   E   E   E
------------------------------|----------------------------------|
--10--10--10--10--8--8--8--8--|--11--11--11--11------------------|
---x---x---x---x--x--x--x--x--|---x---x---x---x--10--10--10--10--|
---7---7---7---7--5--5--5--5--|---8---8---8---8---x---x---x---x--|
------------------------------|-------------------8---8---8---8--|
------------------------------|----------------------------------|


  E  E  E  E  E  E  E  E     E  E  E  E  E   E   E   E
--------------------------|-----------------------------|
--------------------------|-----------------------------|
--9--9--9--9--9--9--9--9--|--5--7--7--8--8--10--10--12--|
--x--x--x--x--x--x--x--x--|--x--x--x--x--x---x---x---x--|
--7--7--7--7--7--7--7--7--|--3--5--5--6--6---8---8--10--|
--------------------------|-----------------------------|


   E   E   E   E  E  E  E  E      E   E   E   E   E   E   E   E
------------------------------|----------------------------------|
--10--10--10--10--8--8--8--8--|--11--11--11--11------------------|
---x---x---x---x--x--x--x--x--|---x---x---x---x--10--10--10--10--|
---7---7---7---7--5--5--5--5--|---8---8---8---8---x---x---x---x--|
------------------------------|-------------------8---8---8---8--|
------------------------------|----------------------------------|


   E   E   E   E  E  E  E  E     E  E   E   E  E  E  E  E
------------------------------|----------------------------|
--10--10--10--10--8--8--8--8--|----------------------------|
---x---x---x---x--x--x--x--x--|--9--9--10--10--9--9--9--9--|
---7---7---7---7--5--5--5--5--|--x--x---x---x--x--x--x--x--|
------------------------------|--7--7---8---8--7--7--7--7--|
------------------------------|----------------------------|


   E   E   E   E  E  E  E  E      E   E   E   E   E   E   E   E
------------------------------|----------------------------------|
--10--10--10--10--8--8--8--8--|--11--11--11--11------------------|
---x---x---x---x--x--x--x--x--|---x---x---x---x--10--10--10--10--|
---7---7---7---7--5--5--5--5--|---8---8---8---8---x---x---x---x--|
------------------------------|-------------------8---8---8---8--|
------------------------------|----------------------------------|


   E  E  E  E  E  E  E  E      Q     E   Q     E   Q
---------------------------|-----------------------------|
--10-----------------------|--13b----L--13b----L--13b----|
---x-----------------------|--13b----L--13b----L--13b----|
---7-----------------------|-----------------------------|
---------------------------|-----------------------------|
---------------------------|-----------------------------|


  E   Q     E   H              W                     H         H
-------------------------|----------------------|-----------------------|
--L--13b----L--13--------|----------------------|-----------------------|
--L--13b----L--12--------|--<>10----------------|--/12\-----------------|
-------------------------|----------------------|-----------------------|
-------------------------|----------------------|-----------------------|
-------------------------|----------------------|-----------------------|


   Q      Q      E    E    E    E       E    E    E    E    E    E   E   E
------------------------------------|----------------------------------------|
--15-----15-----15---15---15---15---|--15---15---15---15---15---15--15--15---|
--17b----17b----17b--17b--17b--17b--|--17b--17b--17b--17b--17b--17--17--17b--|
------------------------------------|----------------------------------------|
------------------------------------|----------------------------------------|
------------------------------------|----------------------------------------|


   E   E   H         S  S  E      E   E   E    S  S  S  S  E   E   E
------------------------------|---------------------------------------|
--15--------------------------|---------------------------------------|
--17--17--17--------14-12-----|--12--10--10b--------------------------|
--------------------------10--|---------------12-10-12-10-----10------|
------------------------------|---------------------------12------12--|
------------------------------|---------------------------------------|


   W                   W                    W
--------------------|-------------------|--------------------|
--------------------|-------------------|--------------------|
--------------------|-------------------|--------------------|
--12----------------|--L----------------|--11----------------|
--------------------|-------------------|--------------------|
--------------------|-------------------|--------------------|


  W                    W                   W
-------------------|--------------------|-------------------|
-------------------|--------------------|-------------------|
-------------------|--------------------|-------------------|
--L----------------|--10----------------|--L----------------|
-------------------|--------------------|-------------------|
-------------------|--------------------|-------------------|


  W                   W                   W                   W
-------------------|-------------------|-------------------|-------------------|
-------------------|-------------------|-------------------|-------------------|
-------------------|-------------------|-------------------|-------------------|
--9----------------|--L----------------|--8----------------|--L----------------|
-------------------|-------------------|-------------------|-------------------|
-------------------|-------------------|-------------------|-------------------|


  W                   W                   W                   W
-------------------|-------------------|-------------------|-------------------|
-------------------|-------------------|-------------------|-------------------|
-------------------|-------------------|-------------------|-------------------|
--7----------------|--L----------------|--6----------------|--L----------------|
-------------------|-------------------|-------------------|-------------------|
-------------------|-------------------|-------------------|-------------------|


  W                   W                   W                   W
-------------------|-------------------|-------------------|-------------------|
-------------------|-------------------|-------------------|-------------------|
-------------------|-------------------|--7----------------|--L----------------|
--5----------------|--L----------------|--x----------------|-------------------|
-------------------|-------------------|--5----------------|--L----------------|
-------------------|-------------------|-------------------|-------------------|


  W                   W
-------------------|-------------------||
-------------------|-------------------||
--L----------------|--L----------------||
-------------------|-------------------||
--L----------------|--L----------------||
-------------------|-------------------||


Duration Legend
---------------
W - whole
H - half
Q - quarter
E - 8th
S - 16th
T - 32nd
X - 64th
. - note dotted
|-n-|  - n-tuplets


Tablature Legend
----------------
L - tied note
x - dead note
g - grace note
(n) - ghost note
> - accentuded note
NH - natural harmonic
AH - artificial harmonic
TH - tapped harmonic
SH - semi harmonic
PH - pitch harmonic
h - hammer on
p - pull off
b - bend
br - bendRelease
pb - preBend
pbr - preBendRelease
brb - bendReleaseBend
\n/ - tremolo bar dip
\n - tremolo bar dive
-/n - tremolo bar Release up
/n\ - tremolo bar inverted dip
/n - tremolo bar return
-\n - tremolo bar Release down
S - shift slide
s - legato slide
/ -  slide into from below or out of upwards
\ -  slide into from above or out of downwards
~ - vibrato
W - wide vibrato
tr - trill
TP - tremolo picking
T - tapping
S - slap
P - pop
< - fade in
^ - brush up
v - brush down


That is all! I hope this helped, and be sure to check out my cover if you are
having problems with the tab. Thanks, oh and one last thing... ROCK OUT!!!!
comments
We did not receive enough feedback on this tab! Please rate:
print report bad tab
1 2 3 4 5
I want to post or [tab]
guest
You may want to rate the tab now too:
select rating
Please do not post tabs as comments. Select "correction" instead!