Oops, an error
Loading. Please wait.

Through Glass Live Tab

1,188 views 6 this week
no commentswrite comment
1 2 3 4 5
please rate
Autoscroll
+/-
esc
set tempo
stop
Contributor
Tuning
D# G# C# F# A# D#
Hey! There's an official Ultimate Guitar app which is ideal
for learning songs when you're away from computer. Get the app
WARNING: You are trying to view
                                    content from Ultimate-Guitar.com
                                    in an unauthorized application,
                                    which is prohibited.

                                    Please use an official Ultimate
                                    Guitar Tabs application for iPhone,
                                    iPad or Android to access legitimate
                                    chords, guitar, bass, and drum tabs
                                    from Ultimate-Guitar.com database.

                                    Type "ultimate guitar tabs" in Apple
                                    App Store's or Android Market's
                                    search to find the application.
----------------------------------------------------------------------------
                             Through Glass Live:Stone Sour
----------------------------------------------------------------------------
Tuning: Half Step Down:Eb Ab Db Gb Bb Eb
Lead Guitar/Jim Root Tab
Tabbed from live video http://www.youtube.com/watch?v=NLDGekeZh_8
This TAB is not 100% perfect but I thought Id share my efforts of tabbing
and learning the lead parts Jim Root plays live.

0:46
Can also be played as harmonics – 12th Fret B string, 12th Fret E String, 19th Fret E String
|--7----12-----19--------------------------------------------------------|
|---------------------------------------------------------------------------|
|---------------------------------------------------------------------------|
|---------------------------------------------------------------------------|
|---------------------------------------------------------------------------|
|---------------------------------------------------------------------------|

0:55

|--7--12--------------------------------------------------------------------|
|---------3/5--7\5--3/5--7\5--3/5--5h7--8-7-5-3-5--5/8----------------------|
|---------------------------------------------------------------------------|
|---------------------------------------------------------------------------|
|---------------------------------------------------------------------------|
|---------------------------------------------------------------------------|

1:14

|--7----12----19----7----12-------------------------------------------------|
|--------------------------------3/5----------------------------------------|
|---------------------------------------------------------------------------|
|---------------------------------------------------------------------------|
|---------------------------------------------------------------------------|
|---------------------------------------------------------------------------|

1:41

|--7----12----19----7----12-------------------------------------------------|
|------------------------------3/5--7\5--3/5--12----------------------------|
|---------------------------------------------------------------------------|
|---------------------------------------------------------------------------|
|---------------------------------------------------------------------------|
|---------------------------------------------------------------------------|

1:58

|--3-3-3-3-3-3-3--2-2-2-3-2-2-2-2-2-2--0-0----------------------------------|
|--3-3-3-3-3-3-3--3-3-3-3-3-3-3-3-3-3--0-0----------------------------------|
|--0-0-0-0-0-0-0--2-2-2-2-2-2-2-2-2-2--0-0----------------------------------|
|--2-2-2-2-2-2-2--0-0-0-0-0-0-0-0-0-0--2-2----------------------------------|
|--3-3-3-3-3-3-3-----------------------2-2----------------------------------|
|---------------------------------------------------------------------------|

2:04

|---------------------------------------------------------------------------|
|---------------------------------------------------------------------------|
|--9--9--9--11--12--12--12--11--9--7--7-------------------------------------|
|---------------------------------------------------------------------------|
|---------------------------------------------------------------------------|
|---------------------------------------------------------------------------|

2:07

|--3-3-3-3-3-3-3--2-2-2-3-2-2-2-2-2-2--0-0----------------------------------|
|--3-3-3-3-3-3-3--3-3-3-3-3-3-3-3-3-3--0-0----------------------------------|
|--0-0-0-0-0-0-0--2-2-2-2-2-2-2-2-2-2--0-0----------------------------------|
|--2-2-2-2-2-2-2--0-0-0-0-0-0-0-0-0-0--2-2----------------------------------|
|--3-3-3-3-3-3-3-----------------------2-2----------------------------------|
|---------------------------------------------------------------------------|

2:13

|---------------------------------------------------------------------------|
|---------------------------------------------------------------------------|
|--2b4r2p0------------------------------------------------------------------|
|-----------2/14--17--19b21r19p17-------------------------------------------|
|----------------------------------19---------------------------------------|
|---------------------------------------------------------------------------|

2:16

|--3-3-3-3-3-3-3--2-2-2-3-2-2-2-2-2-2--0-0----------------------------------|
|--3-3-3-3-3-3-3--3-3-3-3-3-3-3-3-3-3--0-0----------------------------------|
|--0-0-0-0-0-0-0--2-2-2-2-2-2-2-2-2-2--0-0----------------------------------|
|--2-2-2-2-2-2-2--0-0-0-0-0-0-0-0-0-0--2-2----------------------------------|
|--3-3-3-3-3-3-3-----------------------2-2----------------------------------|
|---------------------------------------------------------------------------|

2:21

|---------------------------------------------------------------------------|
|---------------------------------------------------------------------------|
|------------------------------------------12-8------12-8--12-8------12-8---|
|--9-9-9-11-9-9-9-12-11-11-11-14-16-16-16------9---------9-----9---------9--|
|---------------------------------------------------------------------------|
|---------------------------------------------------------------------------|

2:29
Wah Pedal, Trill these sets of notes
|---------------------------------------------------------------------------|
|---------------------------------------------------------------------------|
|--------(9-12)-(14-16)-(19-21)---------------------------------------------|
|--(9-12)-------------------------------------------------------------------|
|---------------------------------------------------------------------------|
|---------------------------------------------------------------------------|


|---------------------------------------------------------------------------|
|--17b19r17--15h17p15--17--17p15--17p15--15h17p15---------------------------|
|--------------------------------------------------16-----------------------|
|---------------------------------------------------------------------------|
|---------------------------------------------------------------------------|
|---------------------------------------------------------------------------|

2:33

|---------------------------------------------------------------------------|
|---------------------------------------------------------------------------|
|---------------------------------------------------------------------------|
|--5-5-X-X-X-X-X-X-X-X--7-7-X-X-X-X-X-X-X-X---------------------------------|
|--3-3-X-X-X-X-X-X-X-X--5-5-X-X-X-X-X-X-X-X---------------------------------|
|---------------------------------------------------------------------------|

2:38

|---------------------------------------------------------------------------|
|---------------------------------------------------------------------------|
|--9-9-12-12-11-9-9\7-7/9-9-------------------------------------------------|
|---------------------------------------------------------------------------|
|---------------------------------------------------------------------------|
|---------------------------------------------------------------------------|

2:42

|---------------------------------------------------------------------------|
|---------------------------------------------------------------------------|
|---------------------------------------------------------------------------|
|--5-5-X-X-X-X-X-X-X-X--7-7-X-X-X-X-X-X-X-X---------------------------------|
|--3-3-X-X-X-X-X-X-X-X--5-5-X-X-X-X-X-X-X-X---------------------------------|
|---------------------------------------------------------------------------|

2:47

|---------------------------------------------------------------------------|
|---------------------------------------------------------------------------|
|--9-9-12-12-11-9-9\7-7/9-9-------------------------------------------------|
|---------------------------------------------------------------------------|
|---------------------------------------------------------------------------|
|---------------------------------------------------------------------------|

2:50

|---------------------------------------------------------------------------|
|---------------------------------------------------------------------------|
|---------------------------------------------------------------------------|
|--5-5-5-5-5-5-5-5--7-7-7-7-7-7-7-7--9-9-9-9-9-9-9-9------------------------|
|--3-3-3-3-3-3-3-3--5-5-5-5-5-5-5-5--7-7-7-7-7-7-7-7------------------------|
|---------------------------------------------------------------------------|

2:56

|---------------------------------------------------------------------------|
|---------------------------------------------------------------------------|
|--12-12----11-11----9-9----7-7---------------------------------------------|
|---------------------------------------------------------------------------|
|--10-10----9--9-----7-7----5-5---------------------------------------------|
|---------------------------------------------------------------------------|

2:59

|---------------------------------------------------------------------------|
|---------------------------------------------------------------------------|
|---------------------------------------------------------------------------|
|--5-5-5-5-5-5-5-5--7-7-7-7-7-7-7-7--9-9-9-9-9-9-9-9------------------------|
|--3-3-3-3-3-3-3-3--5-5-5-5-5-5-5-5--7-7-7-7-7-7-7-7------------------------|
|---------------------------------------------------------------------------|

3:05

|---------------------------------------------------------------------------|
|---------------------------------------------------------------------------|
|--12/14-14-14-14/12-12-12-12/9-9-9-9/7-7-----------------------------------|
|---------------------------------------------------------------------------|
|--10/12-12-12-12/10-10-10-10/7-7-7-7/5-5-----------------------------------|
|---------------------------------------------------------------------------|

3:08

|---------------------------------------------------------------------------|
|---------------------------------------------------------------------------|
|---------------------------------------------------------------------------|
|---------------------------------------------------------------------------|
|--3----5----7--------------------------------------------------------------|
|---------------------------------------------------------------------------|

3:26
Palm Muted
|---------------------------------------------------------------------------|
|---------------------------------------------------------------------------|
|---------------------------------------------------------------------------|
|--5-5-5-5-5-5-5-5--7-7-7-7-7-7-7-7--9-9-9-9-9-9----------------------------|
|--3-3-3-3-3-3-3-3--5-5-5-5-5-5-5-5--7-7-7-7-7-7----------------------------|
|---------------------------------------------------------------------------|

3:32

|---------------------------------------------------------------------------|
|---------------------------------------------------------------------------|
|--9-9-11-11-12-12-14-14----------------------------------------------------|
|---------------------------------------------------------------------------|
|---------------------------------------------------------------------------|
|---------------------------------------------------------------------------|

3:35
Play 10 times
|---------------------------------------------------------------------------|
|--12-8---------------------------------------------------------------------|
|-------9-------------------------------------------------------------------|
|---------------------------------------------------------------------------|
|---------------------------------------------------------------------------|
|---------------------------------------------------------------------------|

3:43

|---------------------------------------------------------------------------|
|---------------------------------------------------------------------------|
|---------------------------------------------------------------------------|
|--5-5-5-5-5-5-5-5--7-7-7-7-7-7-7-7--9-9-9-9-9-9-9-9------------------------|
|--3-3-3-3-3-3-3-3--5-5-5-5-5-5-5-5--7-7-7-7-7-7-7-7------------------------|
|---------------------------------------------------------------------------|

3:50

|---------------------------------------------------------------------------|
|---------------------------------------------------------------------------|
|--12-12----11-11----9-9----7-7---------------------------------------------|
|---------------------------------------------------------------------------|
|--10-10----9--9-----7-7----5-5---------------------------------------------|
|---------------------------------------------------------------------------|

3:52

|---------------------------------------------------------------------------|
|---------------------------------------------------------------------------|
|---------------------------------------------------------------------------|
|--5-5-5-5-5-5-5-5--7-7-7-7-7-7-7-7--9-9-9-9-9-9-9-9------------------------|
|--3-3-3-3-3-3-3-3--5-5-5-5-5-5-5-5--7-7-7-7-7-7-7-7------------------------|
|---------------------------------------------------------------------------|

3:59

|---------------------------------------------------------------------------|
|---------------------------------------------------------------------------|
|--12/14-14-14-14/12-12-12-12/9-9-9-9/7-7-----------------------------------|
|---------------------------------------------------------------------------|
|--10/12-12-12-12/10-10-10-10/7-7-7-7/5-5-----------------------------------|
|---------------------------------------------------------------------------|

4:06
Wah Pedal, Trill these sets of notes
|---------------------------------------------------------------------------|
|---------------------------------------------------------------------------|
|--------(9-12)-(14-16)-(19-21)---------------------------------------------|
|--(9-12)-------------------------------------------------------------------|
|---------------------------------------------------------------------------|
|---------------------------------------------------------------------------|

|---------------------------------------------------------------------------|
|--17b19r17p15--17p15-------------------------------------------------------|
|----------------------16---------------------------------------------------|
|---------------------------------------------------------------------------|
|---------------------------------------------------------------------------|
|---------------------------------------------------------------------------|

4:14

|---------------------------------------------------------------------------|
|-------12-13-12-10-8-7-8-7-5-3-5-3-3---------------------------------------|
|--7/9----------------------------------------------------------------------|
|---------------------------------------------------------------------------|
|---------------------------------------------------------------------------|
|---------------------------------------------------------------------------|

4:18

|---------------------------------------------------------------------------|
|-------10-12-12-10-10h12--------10-12-12-10-10h12--------10-12-12-10-10h12-|
|--7/9----------------------7/9----------------------7/9--------------------|
|---------------------------------------------------------------------------|
|---------------------------------------------------------------------------|
|---------------------------------------------------------------------------|

4:24

|---------------------------------------------------------------------------|
|-------12-10-12-13-12------------------------------------------------------|
|--7/9----------------------------------------------------------------------|
|---------------------------------------------------------------------------|
|---------------------------------------------------------------------------|
|---------------------------------------------------------------------------|

4:28

|--------15-----17b19r17p15-------15-----17b19--17b19--17b19----------------|
|--15-17----17--------------15-17----17----------------------17-------------|
|---------------------------------------------------------------------------|
|---------------------------------------------------------------------------|
|---------------------------------------------------------------------------|
|---------------------------------------------------------------------------|

************************************

| /   slide up
| \   slide down
| h   hammer-on
| p   pull-off
| ~   vibrato
| +   harmonic
| x   Mute note
| b   Bend
| pb  Pre-bend
| br  Bend release
| pbr Pre-bend release
| brb Bend release bend

************************************
comments
We did not receive enough feedback on this tab! Please rate:
print report bad tab
1 2 3 4 5
I want to post or [tab]
guest
You may want to rate the tab now too:
select rating
Please do not post tabs as comments. Select "correction" instead!