Oops, an error
Loading. Please wait.

Tired Tab

ver1
ver1

Whole song

More versions @911Tabs.com
22,314 views 228 this week
no commentswrite comment
1 2 3 4 5
excellent!
x 7
Autoscroll
+/-
esc
set tempo
stop
Contributor
Difficulty
Tuning
novice
D# G# C# F# A# D#
WARNING: You are trying to view
                                    content from Ultimate-Guitar.com
                                    in an unauthorized application,
                                    which is prohibited.

                                    Please use an official Ultimate
                                    Guitar Tabs application for iPhone,
                                    iPad or Android to access legitimate
                                    chords, guitar, bass, and drum tabs
                                    from Ultimate-Guitar.com database.

                                    Type "ultimate guitar tabs" in Apple
                                    App Store's or Android Market's
                                    search to find the application.
                                      TIRED
                            As recorded by Stone Sour
               (From the 2012 Album HOUSE OF GOLD & BONES, PART 1)

Words and Music by Josh Rand, Corey Taylor, James Root and Roy Mayorga
Transcribed by Liam Briggs - briggs.liam@gmail.com

 Intro
  Moderately Slow Q=101
  E5                               D5   E5
 4/4
  Gtr I
|-------------------|-----------------|---------------------|------------------|
|-------------------|-----------------|---------------------|------------------|
|-------------------|-----------------|---------------------|------------------|
|-2---0h2-(2)--0h2--|--0h2------------|-0h2---0h2-(2)--0h2--|--0h2-------------|
|-2---0h2-(2)--0h2--|--0h2---5h7---5--|-0h2---0h2-(2)--0h2--|--0h2---5h7---5---|
|-0-----0-(0)----0--|----0-----0-0----|---0-----0-(0)----0--|----0-----0-0-----|


    E5                                          D5
    Gtrs I, II
|------------------------------|--------------------|
|------------------------------|--------------------|
|------------------------------|--------------------|
|----2---------2--(2)-------2--|------2-----2---7---|
|----2---------2--(2)-------2--|------2-----2---5---|
|----0---------0--(0)-------0--|------0-----0-0-----|
|
| Gtr III
|------------------------------|--------------------|
|-8s12--15-12s10-(10)-13-10s8--|-12-8s7--10---8---7-|
|------------------------------|------------9---7---|
|------------------------------|--------------------|
|------------------------------|--------------------|
|------------------------------|--------------------|


       E5                                               D5
                                                                3x
||---------------------------------|----------------------------||
||o--------------------------------|---------------------------o||
||---------------------------------|----------------------------||
||------2---------2--(2)--------2--|--------2------2-----7------||
||o-----2---------2--(2)--------2--|--------2------2-----5-----o||
||------0---------0--(0)--------0--|--------0------0--0---------||
|
|                                                               3x
||---------------------------------|----------------------------||
||o--8s12--15-12s10-(10)-13-10s=8--|-12--8s=7--10-----8-----7--o||
||---------------------------------|---------------9-----7------||
||---------------------------------|----------------------------||
||o--------------------------------|---------------------------o||
||---------------------------------|----------------------------||
|
| Gtr IV                                                        3x
||---------------------------------|----------------------------||
||o-12s15--19-15s13-(13)-17-13s12--|-15-12s10--13----12----10--o||
||---------------------------------|--------------12----11------||
||---------------------------------|----------------------------||
||o--------------------------------|---------------------------o||
||---------------------------------|----------------------------||


 Verse 1
  E5  N.C.    E5  N.C.    E5  N.C.    C5
  Gtrs I, II
|-----------|-----------|-----------|-----------|
|-----------|-----------|-----------|-----------|
|-----------|-----------|-----------|-5------5--|
|-2\--------|-2\--------|-2\--------|-5------5--|
|-2\--------|-2\--------|-2\--------|-3------3--|
|-0---------|-0---------|-0---------|-----------|


  E5          E5          E5          C5
|-----------|-----------|-----------|--------------|
|-----------|-----------|-----------|--------------|
|-----------|-----------|-----------|-5---5-(5)----|
|-2\--------|-2\--------|-2\--------|-5---5-(5)----|
|-2\--------|-2\--------|-2\--------|-3---3-(3)----|
|-0---------|-0---------|-0---------|--------------|


  D5              E5  Esus2  Em   D5              E5  Esus2  Em
|---------------|---------------|---------------|---------------|
|---------------|---------------|---------------|---------------|
|-7---7-(7)--7--|---------------|-7---7-(7)--7--|---------------|
|-7---7-(7)--7--|-2---4-(4)--5--|-7---7-(7)--7--|-2---4-(4)--5--|
|-5---5-(5)--5--|-2---2-(2)--2--|-5---5-(5)--5--|-2---2-(2)--2--|
|---------------|-0---0-(0)--0--|---------------|-0---0-(0)--0--|


  D5              E5              D5                  N.C.
|---------------|---------------|-----------------|----------||
|---------------|---------------|-----------------|----------||
|-7---7-(7)--7--|---------------|-7---7-(7)-7-7-7-|-7--------||
|-7---7-(7)--7--|-2---2-(2)--2--|-7---7-(7)-7-7-7-|-7--------||
|-5---5-(5)--5--|-2---2-(2)--2--|-5---5-(5)-5-5-5-|-5--------||
|---------------|-0---0-(0)--0--|-----------------|----------||


   Chorus
    $
    C5
    Gtrs I, II
||----------------------------|
||o---------------------------|
||--5-------5-----(5)---------|
||--5-------5-----(5)---------|
||o-3-------3-----(3)---------|
||----------------------------|
|
|   Gtr V
|   T       T          T
||----------------------------|
||o---------8(20)-(8)--7(19)--|
||--7(19)---------------------|
||----------------------------|
||o---------------------------|
||----------------------------|


                  (4th time on D.S.) To Coda
  D5               v              E5
                   v              Gtr I
                               4x
|------------------------------||-------------------------||
|-----------------------------o||-------------------------||
|-7--------7------(7)----------||-------------------------||
|-7--------7------(7)----------||-2-2p0h2-2--0h2-2-2------||
|-5--------5------(5)---------o||-2-2p0h2-2--0h2-2-2------||
|------------------------------||-0-----------------------||
|
|                                 Gtr II
| T        T           T
|                              4x
|------------------------------||-------------------------||
|---------10(22)-(10)---------o||-------------------------||
|-7(19)----------------7(19)---||-------------------------||
|------------------------------||-------------------------||
|-----------------------------o||-------------------------||
|------------------------------||--------------------12\--||


 Verse 2
  E5  N.C.       E5  N.C.       E5  N.C.    C5
  Gtrs I, II
|--------------|--------------|-----------|------|
|--------------|--------------|-----------|------|
|--------------|--------------|-----------|-5----|
|-2\-------x-x-|-2\-------x-x-|-2\--------|-5----|
|-2\-------x-x-|-2\-------x-x-|-2\--------|-3----|
|-0--------x-x-|-0--------x-x-|-0---------|------|


  E5  N.C.       E5  N.C.
  Gtr I
|--------------|--------------|
|--------------|--------------|
|--------------|--------------|
|-2\-------x-x-|-2\-------x-x-|
|-2\-------x-x-|-2\-------x-x-|
|-0--------x-x-|-0--------x-x-|
|
| Gtr II
|--------------|--------------|
|--------------|--------------|
|--------------|--------------|
|-2\-------x-x-|-2\-------x-x-|
|-2\-------x-x-|-2\-------x-x-|
|-0--------x-x-|-0--------x-x-|


  E5  N.C.                                       C5
            \3.5____|         \3.5____|
|----------------------------------------------|--------------|
|----------------------------------------------|--------------|
|----------------------------------------------|-5---5-(5)----|
|-2\---------------------------------------x-x-|-5---5-(5)----|
|-2\---------------------------------------x-x-|-3---3-(3)----|
|-0---<3>-(<3>)---(<3>)-<3>-(<3>)---(<3>)--x-x-|--------------|
|
|----------------------------------------------|--------------|
|----------------------------------------------|--------------|
|----------------------------------------------|-5---5-(5)----|
|-2\---------------------------------------x-x-|-5---5-(5)----|
|-2\---------------------------------------x-x-|-3---3-(3)----|
|-0----------------------------------------x-x-|--------------|


  D5              E5  Esus2  Em   D5              E5  Esus2  Em
  Gtrs I, II
|---------------|---------------|---------------|---------------|
|---------------|---------------|---------------|---------------|
|-7---7-(7)--7--|---------------|-7---7-(7)--7--|---------------|
|-7---7-(7)--7--|-2---4-(4)--5--|-7---7-(7)--7--|-2---4-(4)--5--|
|-5---5-(5)--5--|-2---2-(2)--2--|-5---5-(5)--5--|-2---2-(2)--2--|
|---------------|-0---0-(0)--0--|---------------|-0---0-(0)--0--|


                                                   D.S. al Coda
  D5              E5              D5
|---------------|---------------|---------------|---------------||
|---------------|---------------|---------------|---------------||
|-7---7-(7)--7--|---------------|-7---7-(7)--7--|-7---7-(7)--7--||
|-7---7-(7)--7--|-2---2-(2)--2--|-7---7-(7)--7--|-7---7-(7)--7--||
|-5---5-(5)--5--|-2---2-(2)--2--|-5---5-(5)--5--|-5---5-(5)--5--||
|---------------|-0---0-(0)--0--|---------------|---------------||


 Interlude
  &
    E5                                          D5
  Gtrs I, II
|------------------------------|--------------------|
|------------------------------|--------------------|
|------------------------------|--------------------|
|----2---------2--(2)-------2--|------2-----2---7---|
|----2---------2--(2)-------2--|------2-----2---5---|
|----0---------0--(0)-------0--|------0-----0-0-----|
|
| Gtr III
|------------------------------|--------------------|
|-8s12--15-12s10-(10)-13-10s8--|-12-8s7--10---8---7-|
|------------------------------|------------9---7---|
|------------------------------|--------------------|
|------------------------------|--------------------|
|------------------------------|--------------------|


    E5                                          D5
|------------------------------|---------------------|
|------------------------------|---------------------|
|------------------------------|---------------------|
|----2---------2--(2)-------2--|------2-----2---7----|
|----2---------2--(2)-------2--|------2-----2---5----|
|----0---------0--(0)-------0--|------0-----0-0------|
|
|------------------------------|---------------------|
|-8s12--15-12s10-(10)-13-10s8--|-12-8s7--10---8---7--|
|------------------------------|------------9---7----|
|------------------------------|---------------------|
|------------------------------|---------------------|
|------------------------------|---------------------|


     Em                                               D5
  Gtrs I, II
|--------------------------------|--------------------------|
|--------------------------------|--------------------------|
|--------------------------------|--------------------------|
|-----5---------5--(5)--------5--|--------5------5-----7----|
|-----2---------2--(2)--------2--|--------2------2-----5----|
|-----0---------0--(0)--------0--|--------0------0--0-------|
|
| Gtr III
|--------------------------------|--------------------------|
|-12s15--19-15s13-(13)-17-13s12--|-15-12s10--13----12----10-|
|--------------------------------|--------------12----11----|
|--------------------------------|--------------------------|
|--------------------------------|--------------------------|
|--------------------------------|--------------------------|
|
| Gtr VI
|--------------------------------|--------------------------|
|--------------------------------|--------------------------|
|--------------------------------|--------------------------|
|--------------------------------|--------------------------|
|--------------------------------|--------------------------|
|--------------------------------|--------------------------|


  G/E
|-------------------|--------------------------||
|-------------------|--------------------------||
|-------------------|--------------------------||
|---5----5-(5)---5--|-----5--------5-----5-----||
|---2----2-(2)---2--|-----2--------2-----2-----||
|---0----0-(0)---0--|-----0--------0-----0--0--||
|
|   TP   TP TP   TP    TP TP       TP    TP TP
|-/15---14-14---15--|-15-17-------15----14S19/-||
|-------------------|--------------------------||
|-------------------|--------------------------||
|-------------------|--------------------------||
|-------------------|--------------------------||
|-------------------|--------------------------||
|
|-------------------|----------12s10-----------||
|-------------------|----10s12-------12--------||
|-------------------|--------------------9s=7--||
|-------------------|--------------------------||
|-------------------|--------------------------||
|-------------------|--------------------------||


 Guitar Solo
  C5                              D5
  Gtrs I, II
|-------------------------------|--------------------------------|
|-------------------------------|--------------------------------|
|-5----5-(5)--------------------|--7---------7-(7)---------------|
|-5----5-(5)--------------------|--7---------7-(7)---------------|
|-3----3-(3)--------------------|--5---------5-(5)---------------|
|-------------------------------|--------------------------------|
|
| Gtr VI
|                                  ~~
|-------------------------------|--------------------------------|
|----8-------10b12==(10)r(10)p8-|-10--8h10p8s7-(7)-7h8p7---------|
|-9----7-(7)--------------------|------------------------9p7---7-|
|-------------------------------|----------------------------9---|
|-------------------------------|--------------------------------|
|-------------------------------|--------------------------------|


  C5                               D5
|--------------------------------|-------------------------------------------|
|--------------------------------|-------------------------------------------|
|-5----5-(5)---------------------|--7------------7--(7)----------------------|
|-5----5-(5)---------------------|--7------------7--(7)----------------------|
|-3----3-(3)---------------------|--5------------5--(5)----------------------|
|--------------------------------|-------------------------------------------|
|
|                                   ~~
|------------17b19==(17)r(17)p15-|-17--15h17p15s14-(14)-15p14----------------|
|----8---------------------------|----------------------------17p15----------|
|-9----7-(7)---------------------|----------------------------------16p14S===|
|--------------------------------|-------------------------------------------|
|--------------------------------|-------------------------------------------|
|--------------------------------|-------------------------------------------|


  C5                         D5
|--------------------------|------------------------------------------------------------|
|--------------------------|------------------------------------------------------------|
|-5-------5-(5)------------|--7-------------------------------7--------(7)--------------|
|-5-------5-(5)------------|--7-------------------------------7--------(7)--------------|
|-3-------3-(3)------------|--5-------------------------------5--------(5)--------------|
|--------------------------|------------------------------------------------------------|
|
|                                                                       ~~~
|--------------------------|---------------7-8p7-------7-7-8-10p8----8S12---------------|
|-------------------7h8-10-|-10b12-(10)-10-------10-10------------12--------15b17-15b17-|
|-7-(7)s9-9-(9)-7h9--------|------------------------------------------------------------|
|--------------------------|------------------------------------------------------------|
|--------------------------|------------------------------------------------------------|
|--------------------------|------------------------------------------------------------|


  C5                          D5
|---------------------------|---------------------||
|---------------------------|---------------------||
|--5----------5-(5)---------|--7-----7-(7)--------||
|--5----------5-(5)---------|--7-----7-(7)--------||
|--3----------3-(3)---------|--5-----5-(5)--------||
|---------------------------|---------------------||
|
|----------------0---0------|---------------------||
|-15b17-0-15-15--0--12-10-0-|---------------------||
|---------------------------|-12--11--------------||
|---------------------------|----------14---12----||
|---------------------------|---------------------||
|---------------------------|---------------------||


 Chorus
  C5                                D5
  Gtrs I, II
|---------------------------------|------------------------------|
|---------------------------------|------------------------------|
|--5-------5------(5)-------------|--7--------7------(7)---------|
|--5-------5------(5)-------------|--7--------7------(7)---------|
|--3-------3------(3)-------------|--5--------5------(5)---------|
|---------------------------------|------------------------------|
|
| Gtr V
|  T       T           T             T        T           T
|---------------------------------|------------------------------|
|----------8(20)--(8)--7(19)------|----------10(22)-(10)---------|
|--7(19)--------------------------|--7(19)----------------7(19)--|
|---------------------------------|------------------------------|
|---------------------------------|------------------------------|
|---------------------------------|------------------------------|
|
| Gtr VI
|                                                     >
|  ~~~~~~~~~~~~~~~~~~~               ~~~~~~~~~~~~~~~~~~~~
|---------------------------------|------------------------------|
|---------------------------------|------------------------------|
|---------------------------------|------------------------------|
|-14-------------(14)--------(14)S|=16--------------(16)---------|
|---------------------------------|------------------------------|
|---------------------------------|------------------------------|


  C5                          D5
|---------------------------|-----------------------------|
|---------------------------|-----------------------------|
|-5-------5-----(5)---------|-7--------7------(7)---------|
|-5-------5-----(5)---------|-7--------7------(7)---------|
|-3-------3-----(3)---------|-5--------5------(5)---------|
|---------------------------|-----------------------------|
|
| T       T          T        T        T           T
|---------------------------|-----------------------------|
|---------8(20)-(8)--7(19)--|---------10(22)-(10)---------|
|-7(19)---------------------|-7(19)----------------7(19)--|
|---------------------------|-----------------------------|
|---------------------------|-----------------------------|
|---------------------------|-----------------------------|


  C5                          D5
  Gtrs I, II
|---------------------------|-----------------------------|
|---------------------------|-----------------------------|
|-5-------5-----(5)---------|-7--------7------(7)---------|
|-5-------5-----(5)---------|-7--------7------(7)---------|
|-3-------3-----(3)---------|-5--------5------(5)---------|
|---------------------------|-----------------------------|
|
| Gtr V
| T       T          T        T        T           T
|---------------------------|-----------------------------|
|---------8(20)-(8)--7(19)--|---------10(22)-(10)---------|
|-7(19)---------------------|-7(19)----------------7(19)--|
|---------------------------|-----------------------------|
|---------------------------|-----------------------------|
|---------------------------|-----------------------------|


  C5                          D5
|---------------------------|-----------------------------||
|---------------------------|-----------------------------||
|-5-------5-----(5)---------|-7--------7------(7)---------||
|-5-------5-----(5)---------|-7--------7------(7)---------||
|-3-------3-----(3)---------|-5--------5------(5)---------||
|---------------------------|-----------------------------||
|
| T       T          T        T        T           T
|---------------------------|-----------------------------||
|---------8(20)-(8)--7(19)--|---------10(22)-(10)---------||
|-7(19)---------------------|-7(19)----------------7(19)--||
|---------------------------|-----------------------------||
|---------------------------|-----------------------------||
|---------------------------|-----------------------------||


   Outro
    E5                                D5   C5         D5
    Gtrs I, II
                                                            3x
||----------------------|----------------|----------|-------||
||o---------------------|----------------|----------|------o||
||----------------------|----------------|-5--------|-7-----||
||--2-2-2--2-2-2--2-2-2-|--2-2-2--2---7--|-5--------|-7-----||
||o-2-2-2--2-2-2--2-2-2-|--2-2-2--2-2-5--|-3--------|-5----o||
||--0-0-0--0-0-0--0-0-0-|--0-0-0--0-0----|----------|-------||


                       H.=H
  E5                       D5   C5
|---------------|-------------|----------|--------*|
|---------------|-------------|----------|--------*|
|---------------|-------------|-5--------|-(5)----*|
|-2---2-(2)--2--|--2---2---0--|-5--------|-(5)----*|
|-2---2-(2)--2--|--2---2-2-0--|-3--------|-(3)----*|
|-0---0-(0)--0--|--0---0-0----|----------|--------*|



***************************************************************************************
* Generated using Power Tab Editor by Brad Larsen - http://powertab.guitarnetwork.org *
***************************************************************************************
comments
print report bad tab
I want to post or [tab]
guest
You may want to rate the tab now too:
select rating
Please do not post tabs as comments. Select "correction" instead!