Oops, an error
Loading. Please wait.

Tired Tab

ver2
ver2

Whole song

Interactive

More versions @911Tabs.com
6,329 views 63 this week
no commentswrite comment
1 2 3 4 5
excellent!
x 2
Autoscroll
+/-
esc
set tempo
stop
Contributor
Difficulty
Tuning
intermediate
C# G# C# F# A# D#
WARNING: You are trying to view
                                    content from Ultimate-Guitar.com
                                    in an unauthorized application,
                                    which is prohibited.

                                    Please use an official Ultimate
                                    Guitar Tabs application for iPhone,
                                    iPad or Android to access legitimate
                                    chords, guitar, bass, and drum tabs
                                    from Ultimate-Guitar.com database.

                                    Type "ultimate guitar tabs" in Apple
                                    App Store's or Android Market's
                                    search to find the application.
----------------------------------------------------------------------------
                               Tired
                             Stone Sour
----------------------------------------------------------------------------

Just can’t get TIRED of Stone Sour. Hehe, get it? Haha... ok, nevermind. Enjoy!

Username: dkm817 (same on X box live)
Youtube Cover: http://www.youtube.com/watch?v=Ghs9YtOa1BQ
Email: guitardrums@rockfan.com

Guitar 1 Rhythmic (C# G# C# F# A# D#)
Guitar 2 Lead     (C# G# C# F# A# D#)
Guitar 3 Mixed    (C# G# C# F# A# D#)

NOTE: This was exported off of guitar pro.


Guitar 1

                                                     PM       
       E  E  E   E  E  E   E  E     E   E  E  E   E  E  Q     
D#||-----------------------------|---------------------------|
A#||-----------------------------|---------------------------|
F#||-----------------------------|---------------------------|
C#||--/2--L-----/2--L-----/2--L--|-----/2--L-----/2----------|
G#||---2--L------2--L------2--L--|------2--L------2-----5----|
C#||---2--L------2--L------2--L--|------2--L------2--2-------|


                                                 PM       
   E  E  E   E  E  E   E  E     E   E  E  E   E  E  Q     
-----------------------------|---------------------------|
-----------------------------|---------------------------|
-----------------------------|---------------------------|
--/2--L-----/2--L-----/2--L--|-----/2--L-----/2----------|
---2--L------2--L------2--L--|------2--L------2-----5----|
---2--L------2--L------2--L--|------2--L------2--2-------|


                                            PM                                  
  E  E  E  E  E  E  E  E     E  E  E  E  E  E  Q       E  E  E  E  E  E  E  E   
--------------------------|-------------------------|--------------------------|
--------------------------|-------------------------|--------------------------|
--------------------------|-------------------------|--------------------------|
--2--L-----2--L-----2--L--|-----2--L-----2----------|--2--L-----2--L-----2--L--|
--2--L-----2--L-----2--L--|-----2--L-----2-----5----|--2--L-----2--L-----2--L--|
--2--L-----2--L-----2--L--|-----2--L-----2--2-------|--2--L-----2--L-----2--L--|


                 PM                                                   PM       
  E  E  E  E  E  E  Q       E  E  E  E  E  E  E  E     E  E  E  E  E  E  Q     
-------------------------|--------------------------|-------------------------|
-------------------------|--------------------------|-------------------------|
-------------------------|--------------------------|-------------------------|
-----2--L-----2----------|--2--L-----2--L-----2--L--|-----2--L-----2----------|
-----2--L-----2-----5----|--2--L-----2--L-----2--L--|-----2--L-----2-----5----|
-----2--L-----2--2-------|--2--L-----2--L-----2--L--|-----2--L-----2--2-------|


                                            PM                                
  E  E  E  E  E  E  E  E     E  E  E  E  E  E  Q       Q    E   Q    Q    E   
--------------------------|-------------------------|------------------------|
--------------------------|-------------------------|------------------------|
--------------------------|-------------------------|--4----L\---------------|
--2--L-----2--L-----2--L--|-----2--L-----2----------|--2----L\---------------|
--2--L-----2--L-----2--L--|-----2--L-----2-----5----|--2----L\---------------|
--2--L-----2--L-----2--L--|-----2--L-----2--2-------|--2----L\---------------|


  Q    E   Q    Q    E     Q    E   Q    Q    E     Q    E  Q    E  Q     
------------------------|------------------------|--3----L--3----L--3----|
------------------------|------------------------|--3----L--3----L--3----|
--4----L\---------------|--4----L\---------------|--5----L--5----L--5----|
--2----L\---------------|--2----L\---------------|--5----L--5----L--5----|
--2----L\---------------|--2----L\---------------|--3----L--3----L--3----|
--2----L\---------------|--2----L\---------------|-----------------------|


  Q    E   Q    Q    E     Q    E   Q    Q    E     Q    E   Q    Q    E   
------------------------|------------------------|------------------------|
------------------------|------------------------|------------------------|
--4----L\---------------|--4----L\---------------|--4----L\---------------|
--2----L\---------------|--2----L\---------------|--2----L\---------------|
--2----L\---------------|--2----L\---------------|--2----L\---------------|
--2----L\---------------|--2----L\---------------|--2----L\---------------|


  Q    E  Q    E  Q       E  E  E  E  E  E  E  E     Q    E  Q    E  Q     
--3----L--3----L--3----|--------------------------|-----------------------|
--3----L--3----L--3----|--------------------------|-----------------------|
--5----L--5----L--5----|--7--7--7--7--7--7--7--7--|-----------------------|
--5----L--5----L--5----|--7--7--7--7--7--7--7--7--|--2-------2-------2----|
--3----L--3----L--3----|--5--5--5--5--5--5--5--5--|--2-------2-------2----|
-----------------------|--------------------------|--2-------2-------2----|


  E  E  E  E  E  E  E  E     Q    E  Q    E  Q       E  E  E  E  E  E  E  E   
--------------------------|-----------------------|--------------------------|
--------------------------|-----------------------|--------------------------|
--7--7--7--7--7--7--7--7--|-----------------------|--7--7--7--7--7--7--7--7--|
--7--7--7--7--7--7--7--7--|--2-------2-------2----|--7--7--7--7--7--7--7--7--|
--5--5--5--5--5--5--5--5--|--2-------2-------2----|--5--5--5--5--5--5--5--5--|
--------------------------|--2-------2-------2----|--------------------------|


  Q    E  Q    E  Q       E  E  E  E  E  E  E  E     E  E  E  E  E  E  E  E   
-----------------------|--------------------------|--------------------------|
-----------------------|--------------------------|--------------------------|
-----------------------|--7--7--7--7--7--7--7--7--|--7-----------------------|
--2-------2-------2----|--7--7--7--7--7--7--7--7--|--7-----------------------|
--2-------2-------2----|--5--5--5--5--5--5--5--5--|--5-----------------------|
--2-------2-------2----|--------------------------|--------------------------|


  E  E  E  E  E  E  E  E     E  E  E  E  E  E  E  E   
--------------------------|--------------------------|
--------------------------|--------------------------|
--5--5--5--5--5--5--5--5--|--7--7--7--7--7--7--7--7--|
--5--5--5--5--5--5--5--5--|--7--7--7--7--7--7--7--7--|
--3--3--3--3--3--3--3--3--|--5--5--5--5--5--5--5--5--|
--------------------------|--------------------------|


  E  E  E  E  E  E  E  E     E  E  E  E  E  E  E  E   
--------------------------|--------------------------|
--------------------------|--------------------------|
--5--5--5--5--5--5--5--5--|--7--7--7--7--7--7--7--7--|
--5--5--5--5--5--5--5--5--|--7--7--7--7--7--7--7--7--|
--3--3--3--3--3--3--3--3--|--5--5--5--5--5--5--5--5--|
--------------------------|--------------------------|


  E  E  E  E  E  E  E  E     E  E  E  E  E  E  E  E   
--------------------------|--------------------------|
--------------------------|--------------------------|
--5--5--5--5--5--5--5--5--|--7--7--7--7--7--7--7--7--|
--5--5--5--5--5--5--5--5--|--7--7--7--7--7--7--7--7--|
--3--3--3--3--3--3--3--3--|--5--5--5--5--5--5--5--5--|
--------------------------|--------------------------|


  E  E  E  E  E  E  E  E     E  E  E  E  E  E  E  E   
--------------------------|--------------------------|
--------------------------|--------------------------|
--5--5--5--5--5--5--5--5--|--7--7--7--7--7--7--7--7--|
--5--5--5--5--5--5--5--5--|--7--7--7--7--7--7--7--7--|
--3--3--3--3--3--3--3--3--|--5--5--5--5--5--5--5--5--|
--------------------------|--------------------------|


  S S S S S S S S S S S S E  E      Q    E   Q    Q    E   
---------------------------------|------------------------|
---------------------------------|------------------------|
---------------------------------|--4----L\---------------|
--0-2-2-0-2-2-----0-2-2-0-2--L\--|--2----L\---------------|
--0-2-2-0-2-2-----0-2-2-0-2--L\--|--2----L\---------------|
--0-2-2-0-2-2-----0-2-2-0-2--L\--|--2----L\---------------|


  Q    E   Q    Q    E     Q    E   Q    Q    E     Q    E  Q    E  Q     
------------------------|------------------------|--3----L--3----L--3----|
------------------------|------------------------|--3----L--3----L--3----|
--4----L\---------------|--4----L\---------------|--5----L--5----L--5----|
--2----L\---------------|--2----L\---------------|--5----L--5----L--5----|
--2----L\---------------|--2----L\---------------|--3----L--3----L--3----|
--2----L\---------------|--2----L\---------------|-----------------------|


  Q    E   Q    Q    E     Q    E   Q    Q    E     Q    E   Q    Q    E   
------------------------|------------------------|------------------------|
------------------------|------------------------|------------------------|
--4----L\---------------|--4----L\---------------|--4----L\---------------|
--2----L\---------------|--2----L\---------------|--2----L\---------------|
--2----L\---------------|--2----L\---------------|--2----L\---------------|
--2----L\---------------|--2----L\---------------|--2----L\---------------|


  Q    E  Q    E  Q       E  E  E  E  E  E  E  E     Q    E  Q    E  Q     
--3----L--3----L--3----|--------------------------|-----------------------|
--3----L--3----L--3----|--------------------------|-----------------------|
--5----L--5----L--5----|--7--7--7--7--7--7--7--7--|-----------------------|
--5----L--5----L--5----|--7--7--7--7--7--7--7--7--|--2-------2-------2----|
--3----L--3----L--3----|--5--5--5--5--5--5--5--5--|--2-------2-------2----|
-----------------------|--------------------------|--2-------2-------2----|


  E  E  E  E  E  E  E  E     Q    E  Q    E  Q       E  E  E  E  E  E  E  E   
--------------------------|-----------------------|--------------------------|
--------------------------|-----------------------|--------------------------|
--7--7--7--7--7--7--7--7--|-----------------------|--7--7--7--7--7--7--7--7--|
--7--7--7--7--7--7--7--7--|--2-------2-------2----|--7--7--7--7--7--7--7--7--|
--5--5--5--5--5--5--5--5--|--2-------2-------2----|--5--5--5--5--5--5--5--5--|
--------------------------|--2-------2-------2----|--------------------------|


  Q    E  Q    E  Q       E  E  E  E  E  E  E  E     E  E  E  E  E  E  E  E   
-----------------------|--------------------------|--------------------------|
-----------------------|--------------------------|--------------------------|
-----------------------|--7--7--7--7--7--7--7--7--|--7--7--7--7--7--7--7--7--|
--2-------2-------2----|--7--7--7--7--7--7--7--7--|--7--7--7--7--7--7--7--7--|
--2-------2-------2----|--5--5--5--5--5--5--5--5--|--5--5--5--5--5--5--5--5--|
--2-------2-------2----|--------------------------|--------------------------|


  E  E  E  E  E  E  E  E     E  E  E  E  E  E  E  E   
--------------------------|--------------------------|
--------------------------|--------------------------|
--5--5--5--5--5--5--5--5--|--7--7--7--7--7--7--7--7--|
--5--5--5--5--5--5--5--5--|--7--7--7--7--7--7--7--7--|
--3--3--3--3--3--3--3--3--|--5--5--5--5--5--5--5--5--|
--------------------------|--------------------------|


  E  E  E  E  E  E  E  E     E  E  E  E  E  E  E  E   
--------------------------|--------------------------|
--------------------------|--------------------------|
--5--5--5--5--5--5--5--5--|--7--7--7--7--7--7--7--7--|
--5--5--5--5--5--5--5--5--|--7--7--7--7--7--7--7--7--|
--3--3--3--3--3--3--3--3--|--5--5--5--5--5--5--5--5--|
--------------------------|--------------------------|


  E  E  E  E  E  E  E  E     E  E  E  E  E  E  E  E   
--------------------------|--------------------------|
--------------------------|--------------------------|
--5--5--5--5--5--5--5--5--|--7--7--7--7--7--7--7--7--|
--5--5--5--5--5--5--5--5--|--7--7--7--7--7--7--7--7--|
--3--3--3--3--3--3--3--3--|--5--5--5--5--5--5--5--5--|
--------------------------|--------------------------|


  E  E  E  E  E  E  E  E     E  E  E  E  E  E  E  E   
--------------------------|--------------------------|
--------------------------|--------------------------|
--5--5--5--5--5--5--5--5--|--7--7--7--7--7--7--7--7--|
--5--5--5--5--5--5--5--5--|--7--7--7--7--7--7--7--7--|
--3--3--3--3--3--3--3--3--|--5--5--5--5--5--5--5--5--|
--------------------------|--------------------------|


                                            PM                                  
  E  E  E  E  E  E  E  E     E  E  E  E  E  E  Q       E  E  E  E  E  E  E  E   
--------------------------|-------------------------|--------------------------|
--------------------------|-------------------------|--------------------------|
--------------------------|-------------------------|--------------------------|
--2--L-----2--L-----2--L--|-----2--L-----2----------|--2--L-----2--L-----2--L--|
--2--L-----2--L-----2--L--|-----2--L-----2-----5----|--2--L-----2--L-----2--L--|
--2--L-----2--L-----2--L--|-----2--L-----2--2-------|--2--L-----2--L-----2--L--|


                 PM                                                   PM       
  E  E  E  E  E  E  Q       E  E  E  E  E  E  E  E     E  E  E  E  E  E  Q     
-------------------------|--------------------------|-------------------------|
-------------------------|--------------------------|-------------------------|
-------------------------|--------------------------|-------------------------|
-----2--L-----2----------|--2--L-----2--L-----2--L--|-----2--L-----2----------|
-----2--L-----2-----5----|--2--L-----2--L-----2--L--|-----2--L-----2-----5----|
-----2--L-----2--2-------|--2--L-----2--L-----2--L--|-----2--L-----2--2-------|


  E  E  E  E  E  E  E  E     E   E   E   E   E   E   E   E   
--------------------------|---------------------------------|
--------------------------|-------------17--15--------------|
--------------------------|-----14--16----------14----------|
--2--L-----2--L-----2--L--|-------------------------14--12--|
--2--L-----2--L-----2--L--|---------------------------------|
--2--L-----2--L-----2--L--|---------------------------------|


   Q     E   Q     Q      S  S     Q     T  T  S  Q     T  T  S  S  S  S  S  
-------------------------------|--------------------------------------------|
-------------------------------|--------------------------------------------|
------------------15b----14-12-|--14----12-14-12-11----11-12-11-------------|
--14----17--12-----------------|--------------------------------14-12----12-|
-------------------------------|--------------------------------------14----|
-------------------------------|--------------------------------------------|


   Q     E   Q     Q      S  S     Q     T  T  S  Q     S  S  S  S  S  S  
------------------18b----17-15-|--17----15-17-15-14----15-14-------------|
-------------------------------|-----------------------------15----------|
-------------------------------|--------------------------------14-------|
--14----17--12-----------------|-----------------------------------17-16-|
-------------------------------|-----------------------------------------|
-------------------------------|-----------------------------------------|


   Q     E   Q     T  T  S  E   E   
-----------------------------------|
-----------------------------------|
---------------------------12--14--|
--12----14--14----12-14-16---------|
-----------------------------------|
-----------------------------------|


                        |--3--|  |--3--|                 
   E   E    T  T  T  T  S  S  S  S  S  S  E    E    E    
--------------------------------------------------------|
--------------------------------13-15-17-15b--15b--15b--|
--14--14b--14-16-14-16-14-16-17-------------------------|
--------------------------------------------------------|
--------------------------------------------------------|
--------------------------------------------------------|


   E   E   Q    Q     Q        Q     Q     Q     Q        W                 
-------0---L----0----------|--------------------------|--------------------|
--15b--L--15----L----------|--------------------------|--------------------|
---------------------14----|--12----------------------|--------------------|
---------------------------|--------16----14----12----|--14----------------|
---------------------------|--------------------------|--------------------|
---------------------------|--------------------------|--------------------|


  E  E  E  E  E  E  E  E     E  E  E  E  E  E  E  E   
--------------------------|--------------------------|
--------------------------|--------------------------|
--7--7--7--7--7--7--7--7--|--5--5--5--5--5--5--5--5--|
--7--7--7--7--7--7--7--7--|--5--5--5--5--5--5--5--5--|
--5--5--5--5--5--5--5--5--|--3--3--3--3--3--3--3--3--|
--------------------------|--------------------------|


  E  E  E  E  E  E  E  E     E  E  E  E  E  E  E  E   
--------------------------|--------------------------|
--------------------------|--------------------------|
--7--7--7--7--7--7--7--7--|--5--5--5--5--5--5--5--5--|
--7--7--7--7--7--7--7--7--|--5--5--5--5--5--5--5--5--|
--5--5--5--5--5--5--5--5--|--3--3--3--3--3--3--3--3--|
--------------------------|--------------------------|


  E  E  E  E  E  E  E  E     E  E  E  E  E  E  E  E   
--------------------------|--------------------------|
--------------------------|--------------------------|
--7--7--7--7--7--7--7--7--|--5--5--5--5--5--5--5--5--|
--7--7--7--7--7--7--7--7--|--5--5--5--5--5--5--5--5--|
--5--5--5--5--5--5--5--5--|--3--3--3--3--3--3--3--3--|
--------------------------|--------------------------|


                                                                       PM       
  E  E  E  E  E  E  E  E     E  E  E  E  E  E  E  E     E  E  E  E  E  E  Q     
--------------------------|--------------------------|-------------------------|
--------------------------|--------------------------|-------------------------|
--7--7--7--7--7--7--7--7--|--------------------------|--------------------7----|
--7--7--7--7--7--7--7--7--|--2--L-----2--L-----2--L--|-----2--L-----2--2--7----|
--5--5--5--5--5--5--5--5--|--2--L-----2--L-----2--L--|-----2--L-----2--2--5----|
--------------------------|--2--L-----2--L-----2--L--|-----2--L-----2--2-------|


  E  E  E  E  E  E  E  E     E  E  E  E  E  E  E  E   
--------------------------|--------------------------|
--------------------------|--------------------------|
--5--5--5--5--5--5--5--5--|--7--7--7--7--7--7--7--7--|
--5--5--5--5--5--5--5--5--|--7--7--7--7--7--7--7--7--|
--3--3--3--3--3--3--3--3--|--5--5--5--5--5--5--5--5--|
--------------------------|--------------------------|


                                            PM                                  
  E  E  E  E  E  E  E  E     E  E  E  E  E  E  Q       E  E  E  E  E  E  E  E   
--------------------------|-------------------------|--------------------------|
--------------------------|-------------------------|--------------------------|
--------------------------|--------------------7----|--5--5--5--5--5--5--5--5--|
--2--L-----2--L-----2--L--|-----2--L-----2--2--7----|--5--5--5--5--5--5--5--5--|
--2--L-----2--L-----2--L--|-----2--L-----2--2--5----|--3--3--3--3--3--3--3--3--|
--2--L-----2--L-----2--L--|-----2--L-----2--2-------|--------------------------|


                                                                       PM       
  E  E  E  E  E  E  E  E     E  E  E  E  E  E  E  E     E  E  E  E  E  E  Q     
--------------------------|--------------------------|-------------------------|
--------------------------|--------------------------|-------------------------|
--7--7--7--7--7--7--7--7--|--------------------------|--------------------7----|
--7--7--7--7--7--7--7--7--|--2--L-----2--L-----2--L--|-----2--L-----2--2--7----|
--5--5--5--5--5--5--5--5--|--2--L-----2--L-----2--L--|-----2--L-----2--2--5----|
--------------------------|--2--L-----2--L-----2--L--|-----2--L-----2--2-------|


  E  E  E  E  E  E  E  E     E  E  E  E  E  E  E  E   
--------------------------|--------------------------|
--------------------------|--------------------------|
--5--5--5--5--5--5--5--5--|--7--7--7--7--7--7--7--7--|
--5--5--5--5--5--5--5--5--|--7--7--7--7--7--7--7--7--|
--3--3--3--3--3--3--3--3--|--5--5--5--5--5--5--5--5--|
--------------------------|--------------------------|


  E  E  E  E  E  E  E  E     E  E  E  E  E  E  E  E     W                 
--------------------------|--------------------------|-------------------|
--------------------------|--------------------------|-------------------|
--------------------------|--------------9--9--7--7--|--5----------------|
--2--L-----2--L-----2--L--|-----2--L-----9--9--7--7--|--5----------------|
--2--L-----2--L-----2--L--|-----2--L-----7--7--5--5--|--3----------------|
--2--L-----2--L-----2--L--|-----2--L-----------------|-------------------|


  W                   W                  
-------------------|-------------------||
-------------------|-------------------||
--L----------------|--L----------------||
--L----------------|--L----------------||
--L----------------|--L----------------||
-------------------|-------------------||


Guitar 2

                                        Q     E   Q     E   Q     
D#||-------|-------|-------|-------|-----------------------------|
A#||-------|-------|-------|-------|--/12----15--------13--------|
F#||-------|-------|-------|-------|-------------14--------12----|
C#||-------|-------|-------|-------|-----------------------------|
G#||-------|-------|-------|-------|-----------------------------|
C#||-------|-------|-------|-------|-----------------------------|


   E   Q     E  E  E  E  E       Q     E   Q     E   Q     
----------------------------|-----------------------------|
--12--------10-----8-----7--|--/12----15--------13--------|
------11--------9-----7-----|-------------14--------12----|
----------------------------|-----------------------------|
----------------------------|-----------------------------|
----------------------------|-----------------------------|


   E   Q     E  E  E  E  E       Q     E   Q     E   Q     
----------------------------|-----------------------------|
--12--------10-----8-----7--|--/12----15--------13--------|
------11--------9-----7-----|-------------14--------12----|
----------------------------|-----------------------------|
----------------------------|-----------------------------|
----------------------------|-----------------------------|


   E   Q     E  E  E  E  E       Q     E   Q     E   Q     
----------------------------|-----------------------------|
--12--------10-----8-----7--|--/12----15--------13--------|
------11--------9-----7-----|-------------14--------12----|
----------------------------|-----------------------------|
----------------------------|-----------------------------|
----------------------------|-----------------------------|


   E   Q     E  E  E  E  E      E  E   Q    H           Q    E   Q    Q    E   
----------------------------|------------------------|------------------------|
--12--------10-----8-----7--|--17--L\----------------|------------------------|
------11--------9-----7-----|------------------------|--4----L\---------------|
----------------------------|------------------------|--2----L\---------------|
----------------------------|------------------------|--2----L\---------------|
----------------------------|------------------------|--2----L\---------------|


  Q    E   Q    Q    E     Q    E  Q    E  Q     
------------------------|--3----L--3----L--3----|
------------------------|--3----L--3----L--3----|
--4----L\---------------|--5----L--5----L--5----|
--2----L\---------------|--5----L--5----L--5----|
--2----L\---------------|--3----L--3----L--3----|
--2----L\---------------|-----------------------|


  PM PM PM PM PM PM PM PM PM PM PM PM PM PM PM PM  
  S  S  S  S  S  S  S  S  S  S  S  S  S  S  S  S   
--7--7--0--0--7--7--0--0--7--7--0--0--7--7--0--0--|
--------------------------------------------------|
--------------------------------------------------|
--------------------------------------------------|
--------------------------------------------------|
--------------------------------------------------|


  PM PM PM PM PM PM PM PM PM PM PM PM PM PM PM PM  
  S  S  S  S  S  S  S  S  S  S  S  S  S  S  S  S   
--7--7--0--0--7--7--0--0--7--7--0--0--7--7--0--0--|
--------------------------------------------------|
--------------------------------------------------|
--------------------------------------------------|
--------------------------------------------------|
--------------------------------------------------|


                                                             PH     
  S S S S S S S S S S S S S S S S     E  E   E  E   E  E     E  E   
--7-7-0-0-7-7-0-0-7-7-0-0-7-7-0-0-|--------------------------------|
----------------------------------|--12-----12-----12-----<>12-----|
----------------------------------|------9------9------9--------9--|
----------------------------------|--------------------------------|
----------------------------------|--------------------------------|
----------------------------------|--------------------------------|


  E  E  E  E  E  E  E  E     E  E  E  E  E  E  E  E   
--------------------------|--------------------------|
--------------------------|--5--5--5--7--7--7--8--8--|
--7--7--7--7--7--7--7--7--|--x--x--x--x--x--x--x--x--|
--7--7--7--7--7--7--7--7--|--2--2--2--4--4--4--5--5--|
--5--5--5--5--5--5--5--5--|--------------------------|
--------------------------|--------------------------|


  E  E  E  E  E  E  E  E     E  E  E  E  E  E  E  E   
--------------------------|--------------------------|
--------------------------|--5--5--5--7--7--7--8--8--|
--7--7--7--7--7--7--7--7--|--x--x--x--x--x--x--x--x--|
--7--7--7--7--7--7--7--7--|--2--2--2--4--4--4--5--5--|
--5--5--5--5--5--5--5--5--|--------------------------|
--------------------------|--------------------------|


  E  E  E  E  E  E  E  E      Q    E   Q    E   Q        W                 
--------------------------|--17----L--15----L--14----|--------------------|
--------------------------|--------------------------|--15----------------|
--7--7--7--7--7--7--7--7--|--------------------------|--------------------|
--7--7--7--7--7--7--7--7--|--------------------------|--------------------|
--5--5--5--5--5--5--5--5--|--------------------------|--------------------|
--------------------------|--------------------------|--------------------|


  E  E  E  E  E  E  E  E      E   E   E   Q    E   Q     
--------------------------|--------------15----L--------|
--------------------------|--13-------------------13----|
--7-----------------------|------12---------------------|
--7-----------------------|----------14-----------------|
--5-----------------------|-----------------------------|
--------------------------|-----------------------------|


   E   E   E   Q    E   Q        E   E   E   Q    E   Q     
--------------17----L--14----|--------------15----L--------|
--15-------------------------|--13-------------------13----|
------14---------------------|------12---------------------|
----------16-----------------|----------14-----------------|
-----------------------------|-----------------------------|
-----------------------------|-----------------------------|


   E   E   E   Q     E   E   E      E   E   E   Q    E   Q     
--------------17----15--14--15--|--------------15----L--------|
--15----------------------------|--13-------------------13----|
------14------------------------|------12---------------------|
----------16--------------------|----------14-----------------|
--------------------------------|-----------------------------|
--------------------------------|-----------------------------|


   E   E   E   Q    E   Q        E   E   E   Q    E   Q     
--------------17----L--14----|--------------15----L--------|
--15-------------------------|--13-------------------13----|
------14---------------------|------12---------------------|
----------16-----------------|----------14-----------------|
-----------------------------|-----------------------------|
-----------------------------|-----------------------------|


   E   E   E   Q     E   E   E      Q    Q    Q    Q     
--------------17-----L--15--14--|--15-------------------|
--15----------------------------|-----------------------|
------14------------------------|-----------------------|
----------16--------------------|-----------------------|
--------------------------------|-----------------------|
--------------------------------|-----------------------|


   PM  PM  PM  PM PM  PM PM PM     PM  PM  PM  PM PM PM PM PM  
   E   E   E   E  E   E  E  E      E   E   E   E  E  E  E  E   
-------------------------------|------------------------------|
--12--15--10--13--8--10--7--8--|--12--15--10--13--8--7--------|
-------------------------------|------------------------7--9--|
-------------------------------|------------------------------|
-------------------------------|------------------------------|
-------------------------------|------------------------------|


   PM  PM  PM  PM PM  PM PM PM                          
   E   E   E   E  E   E  E  E     Q    E  Q    E  Q     
-------------------------------|--3----L--3----L--3----|
--12--15--10--13--8--10--------|--3----L--3----L--3----|
-------------------------9--7--|--5----L--5----L--5----|
-------------------------------|--5----L--5----L--5----|
-------------------------------|--3----L--3----L--3----|
-------------------------------|-----------------------|


   E  E   E  E   E  E   E  E      E  E   E  E   E  E   E  E   
------------------------------|------------------------------|
--12-----12-----12-----12-----|--12-----12-----12-----12-----|
------9------9------9------9--|------9------9------9------9--|
------------------------------|------------------------------|
------------------------------|------------------------------|
------------------------------|------------------------------|


   E  E   E  E   E  E   E  E      E  E   E  E   E  E   E  E   
------------------------------|------------------------------|
--12-----12-----12-----12-----|--12-----12-----12-----12-----|
------9------9------9------9--|------9------9------9------9--|
------------------------------|------------------------------|
------------------------------|------------------------------|
------------------------------|------------------------------|


  E  E  E  E  E  E  E  E     E  E  E  E  E  E  E  E   
--------------------------|--------------------------|
--------------------------|--5--5--5--7--7--7--8--8--|
--7--7--7--7--7--7--7--7--|--x--x--x--x--x--x--x--x--|
--7--7--7--7--7--7--7--7--|--2--2--2--4--4--4--5--5--|
--5--5--5--5--5--5--5--5--|--------------------------|
--------------------------|--------------------------|


  E  E  E  E  E  E  E  E     E  E  E  E  E  E  E  E   
--------------------------|--------------------------|
--------------------------|--5--5--5--7--7--7--8--8--|
--7--7--7--7--7--7--7--7--|--x--x--x--x--x--x--x--x--|
--7--7--7--7--7--7--7--7--|--2--2--2--4--4--4--5--5--|
--5--5--5--5--5--5--5--5--|--------------------------|
--------------------------|--------------------------|


  E  E  E  E  E  E  E  E      E   E   E   E   E   E  E  E   
--------------------------|--------------------------------|
--------------------------|--12--12--12--10--10--10--8--8--|
--7--7--7--7--7--7--7--7--|---x---x---x---x---x---x--x--x--|
--7--7--7--7--7--7--7--7--|---9---9---9---7---7---7--5--5--|
--5--5--5--5--5--5--5--5--|--------------------------------|
--------------------------|--------------------------------|


   E   E   E   E   E   E   E   E      E   E   E   E   E   E   E   E   
----------------------------------|----------------------------------|
--10--10--10--10--10--10--10--10--|--10--10--10--10--10--10--10--10--|
---x---x---x---x---x---x---x---x--|---x---x---x---x---x---x---x---x--|
---7---7---7---7---7---7---7---7--|---7---7---7---7---7---7---7---7--|
----------------------------------|----------------------------------|
----------------------------------|----------------------------------|


   E   E   E   Q    E   Q        E   E   E   Q    E   Q     
--------------15----L--------|--------------17----L--14----|
--13-------------------13----|--15-------------------------|
------12---------------------|------14---------------------|
----------14-----------------|----------16-----------------|
-----------------------------|-----------------------------|
-----------------------------|-----------------------------|


   E   E   E   Q    E   Q        E   E   E   Q     E   E   E   
--------------15----L--------|--------------17----15--14--15--|
--13-------------------13----|--15----------------------------|
------12---------------------|------14------------------------|
----------14-----------------|----------16--------------------|
-----------------------------|--------------------------------|
-----------------------------|--------------------------------|


   E   E   E   Q    E   Q        E   E   E   Q    E   Q     
--------------15----L--------|--------------17----L--14----|
--13-------------------13----|--15-------------------------|
------12---------------------|------14---------------------|
----------14-----------------|----------16-----------------|
-----------------------------|-----------------------------|
-----------------------------|-----------------------------|


   E   E   E   Q    E   Q        E   E   E   Q     E   E   E   
--------------15----L--------|--------------17-----L--15--14--|
--13-------------------13----|--15----------------------------|
------12---------------------|------14------------------------|
----------14-----------------|----------16--------------------|
-----------------------------|--------------------------------|
-----------------------------|--------------------------------|


    Q     E   Q     E   Q        E   Q     E  E  E  E  E   
-----------------------------|----------------------------|
--/12----15--------13--------|--12--------10-----8-----7--|
-------------14--------12----|------11--------9-----7-----|
-----------------------------|----------------------------|
-----------------------------|----------------------------|
-----------------------------|----------------------------|


    Q     E   Q     E   Q        E   Q     E  E  E  E  E   
-----------------------------|----------------------------|
--/12----15--------13--------|--12--------10-----8-----7--|
-------------14--------12----|------11--------9-----7-----|
-----------------------------|----------------------------|
-----------------------------|----------------------------|
-----------------------------|----------------------------|


    Q     E   Q     E   Q        E   Q     E   E   E   E   E   
-----------------------------|--------------------------------|
--/15----19--------17--------|--15--------13------12------10--|
-------------17--------16----|------14--------12------11------|
-----------------------------|--------------------------------|
-----------------------------|--------------------------------|
-----------------------------|--------------------------------|


   T  T  T  T  T  T  T  T  T  T  T  T  T  T  T  T  T  T  T  T  T  T  T  T  T  T 
--15-15-15-15-15-15-15-15-15-15-15-15-14-14-14-14-14-14-14-14-14-14-14-14-15-15-
--------------------------------------------------------------------------------
--------------------------------------------------------------------------------
--------------------------------------------------------------------------------
--------------------------------------------------------------------------------
--------------------------------------------------------------------------------


   T  T  T  T  T  T  T  T  T  T  T  T  T  T  T  T  T  T  T  T  T  T  T  T  T  T 
--15-15-15-15-17-17-17-17-17-17-17-17-17-17-17-17-15-15-15-15-17-17-17-17-14-14-
--------------------------------------------------------------------------------
--------------------------------------------------------------------------------
--------------------------------------------------------------------------------
--------------------------------------------------------------------------------
--------------------------------------------------------------------------------


  W                   W                   W                   W                 
-------------------|-------------------|-------------------|-------------------|
-------------------|-------------------|-------------------|-------------------|
--5----------------|--7----------------|--5----------------|--7----------------|
--5----------------|--7----------------|--5----------------|--7----------------|
--3----------------|--5----------------|--3----------------|--5----------------|
-------------------|-------------------|-------------------|-------------------|


  W                   W                   W                   W                 
-------------------|-------------------|-------------------|-------------------|
-------------------|-------------------|-------------------|-------------------|
--5----------------|--7----------------|--5----------------|--7----------------|
--5----------------|--7----------------|--5----------------|--7----------------|
--3----------------|--5----------------|--3----------------|--5----------------|
-------------------|-------------------|-------------------|-------------------|


   E   E   E   Q    E   Q        E   E   E   Q    E   Q     
--------------15----L--------|--------------17----L--14----|
--13-------------------13----|--15-------------------------|
------12---------------------|------14---------------------|
----------14-----------------|----------16-----------------|
-----------------------------|-----------------------------|
-----------------------------|-----------------------------|


   E   E   E   Q    E   Q        E   E   E   Q     E   E   E   
--------------15----L--------|--------------17----15--14--15--|
--13-------------------13----|--15----------------------------|
------12---------------------|------14------------------------|
----------14-----------------|----------16--------------------|
-----------------------------|--------------------------------|
-----------------------------|--------------------------------|


   E   E   E   Q    E   Q        E   E   E   Q    E   Q     
--------------15----L--------|--------------17----L--14----|
--13-------------------13----|--15-------------------------|
------12---------------------|------14---------------------|
----------14-----------------|----------16-----------------|
-----------------------------|-----------------------------|
-----------------------------|-----------------------------|


   E   E   E   Q    E   Q        E   E   E   Q     E   E   E   
--------------15----L--------|--------------17-----L--15--14--|
--13-------------------13----|--15----------------------------|
------12---------------------|------14------------------------|
----------14-----------------|----------16--------------------|
-----------------------------|--------------------------------|
-----------------------------|--------------------------------|


   W                   E   S  S  S  S  S  S  S  S  S  S  S  S  S  S  
--12----------------|-----------------------------------------20-22-|
--------------------|-----------------------------------------------|
--------------------|--------------------12----------11-12-14-------|
--------------------|-----14-12-14-12-14----14-12-14----------------|
--------------------|-----------------------------------------------|
--------------------|-----------------------------------------------|


   H        Q     Q        W                    Q     E   Q     E   Q     
--24--------L----22----|--------------------|--19----22--------20--------|
-----------------------|--22----------------|------------22--------20----|
-----------------------|--------------------|----------------------------|
-----------------------|--------------------|----------------------------|
-----------------------|--------------------|----------------------------|
-----------------------|--------------------|----------------------------|


   E   Q     E   E   E   E   E      Q    E   Q    E   Q     
--19--------17------15------14--|-----------14----L--15----|
------19--------17------15------|--17----L-----------------|
--------------------------------|--------------------------|
--------------------------------|--------------------------|
--------------------------------|--------------------------|
--------------------------------|--------------------------|


   E   E   E   H        E      Q     E   Q     E   Q     
--15--14------14--------L--|----------------------------|
----------17---------------|--12----15--------13--------|
---------------------------|------------14--------12----|
---------------------------|----------------------------|
---------------------------|----------------------------|
---------------------------|----------------------------|


   E   Q     E  E  E  E  E      Q     E   Q    E   Q     
----------------------------|---------------------------|
--12--------10-----8-----7--|--13-----L--12----L--------|
------11--------9-----7-----|---------------------12----|
----------------------------|---------------------------|
----------------------------|---------------------------|
----------------------------|---------------------------|


   E   E   H        Q        W                    H         E   E   E   E   
--15--17--14--------L----|--12~----------------|--L--------15--14--12------|
-------------------------|---------------------|-----------------------15--|
-------------------------|---------------------|---------------------------|
-------------------------|---------------------|---------------------------|
-------------------------|---------------------|---------------------------|
-------------------------|---------------------|---------------------------|


   W                   W                   W                  
--------------------|-------------------|-------------------||
--13----------------|--L----------------|--L----------------||
--------------------|-------------------|-------------------||
--------------------|-------------------|-------------------||
--------------------|-------------------|-------------------||
--------------------|-------------------|-------------------||


Guitar 3

(0:14)

    Q     E   Q     E   Q        E   Q     E   E   E   E   E   
-----------------------------|--------------------------------|
--/15----19--------17--------|--15--------13------12------10--|
-------------17--------16----|------14--------12------11------|
-----------------------------|--------------------------------|
-----------------------------|--------------------------------|
-----------------------------|--------------------------------|


    Q     E   Q     E   Q        E   Q     E   E   E   E   E   
-----------------------------|--------------------------------|
--/15----19--------17--------|--15--------13------12------10--|
-------------17--------16----|------14--------12------11------|
-----------------------------|--------------------------------|
-----------------------------|--------------------------------|
-----------------------------|--------------------------------|


    Q     E   Q     E   Q        E   Q     E   E   E   E   E               
-----------------------------|--------------------------------|
--/15----19--------17--------|--15--------13------12------10--|
-------------17--------16----|------14--------12------11------|
-----------------------------|--------------------------------|
-----------------------------|--------------------------------|
-----------------------------|--------------------------------|


Duration Legend
---------------
W - whole
H - half
Q - quarter
E - 8th
S - 16th
T - 32nd
X - 64th
. - note dotted
|-n-|  - n-tuplets


Tablature Legend
----------------
L - tied note
x - dead note
g - grace note
(n) - ghost note
> - accentuded note
NH - natural harmonic
AH - artificial harmonic
TH - tapped harmonic
SH - semi harmonic
PH - pitch harmonic
h - hammer on
p - pull off
b - bend
br - bendRelease
pb - preBend
pbr - preBendRelease
brb - bendReleaseBend
\n/ - tremolo bar dip
\n - tremolo bar dive
-/n - tremolo bar Release up
/n\ - tremolo bar inverted dip
/n - tremolo bar return
-\n - tremolo bar Release down
S - shift slide
s - legato slide
/ -  slide into from below or out of upwards
\ -  slide into from above or out of downwards
~ - vibrato
W - wide vibrato
tr - trill
TP - tremolo picking
T - tapping
S - slap
P - pop
< - fade in
^ - brush up
v - brush down


That is all! I hope this helped, and be sure to check out my cover if you are
having problems with the tab. Thanks, oh and one last thing... ROCK OUT!!!!
comments
We did not receive enough feedback on this tab! Please rate:
print report bad tab
1 2 3 4 5
I want to post or [tab]
guest
You may want to rate the tab now too:
select rating
Please do not post tabs as comments. Select "correction" instead!