Oops, an error
Loading. Please wait.

Tumult Drum Tab

ver1
ver1

Whole song

Interactive

More versions @911Tabs.com
298 views 1 this week
no commentswrite comment
1 2 3 4 5
please rate
Autoscroll
+/-
esc
set tempo
stop
Contributor
WARNING: You are trying to view
                                    content from Ultimate-Guitar.com
                                    in an unauthorized application,
                                    which is prohibited.

                                    Please use an official Ultimate
                                    Guitar Tabs application for iPhone,
                                    iPad or Android to access legitimate
                                    chords, guitar, bass, and drum tabs
                                    from Ultimate-Guitar.com database.

                                    Type "ultimate guitar tabs" in Apple
                                    App Store's or Android Market's
                                    search to find the application.

Album: Stone Sour
Drummer: Joel Ekman

 C: Crash          t: Small Tom   0 = Regular Hit
HH: Hi-Hats Open   T: Large Tom   x = Use stick tip
hh: Hi-Hats Close  F: Floor Tom   F = Flam
 S: Snare          B: Bass

 C:-------------------------------|-------------------------------|
HH:----------------------------0--|--------------------------00-00|
hh:0000000000000000000000000000-00|00000000000000000000000000--0--|
 S:-------------------------------|-------------------------------|
 B:0-------0-------0-------0------|0-------0-------0-------0------|

 C:-------------------------------|-------------------------------|
HH:----------------------------0--|--------------------------00-00|
hh:0000000000000000000000000000-00|00000000000000000000000000--0--|
 S:-------------------------------|-------------------------------|
 B:0-------0-------0-------0------|0-------0-------0-------0------|

 C:-------------------------------|-------------------------------|
HH:----------------------------0--|--------------------------00-00|
hh:0000000000000000000000000000-00|00000000000000000000000000--0--|
 S:-------------------------------|-------------------------------|
 B:0-------0-------0-------0------|0-------0-------0-------0------|

 C:-------------------------------|--GOD---|
HH:-------------------------------|-***---|
hh:-------------------------------|--YOU---|
 S:0-0-0-0-0-0-0-0-0-0-0-0-0-0-0-0|-------F|
 B:0-------0-------0-------0-----0|--------|

 C:----------------|----------------|----------------|--------------0-|
HH:--0---0---0---0-|--0---0---0---0-|--0---0---0---0-|--0---0---0-----|
hh:----------------|----------------|----------------|----------------|
 S:--0---0---0---0-|--0---0---0---0-|--0---0---0---0-|--0---0---0---0-|
 B:0---0---0---0---|0---0---0---0---|0---0---0---0---|0---0---0---0-0-|
 
 C:----------------|----------------|----------------|----------------|
HH:--0---0---0---0-|--0---0---0---0-|--0---0---0---0-|--0---0---0-----|
hh:----------------|----------------|----------------|----------------|
 S:--0---0---0---0-|--0---0---0---0-|--0---0---0---0-|--0---0---0---F-|
 B:0---0---0---0---|0---0---0---0---|0---0---0---0---|0---0---0---0--0|

 C:-------------------------------|-------------------------------|
HH:----------------------------0--|--------------------------00-00|
hh:0000000000000000000000000000-00|00000000000000000000000000--0--|
 S:-------------------------------|-------------------------------|
 B:0-------0-------0-------0------|0-------0-------0-------0------|

 C:-------------------------------|-------------------------------|
HH:----------------------------0--|--------------------------00-00|
hh:0000000000000000000000000000-00|00000000000000000000000000--0--|
 S:-------------------------------|-------------------------------|
 B:0-------0-------0-------0------|0-------0-------0-------0------|

 C:-------------------------------|-------------------------------|
HH:----------------------------0--|--------------------------00-00|
hh:0000000000000000000000000000-00|00000000000000000000000000--0--|
 S:-------------------------------|-------------------------------|
 B:0-------0-------0-------0------|0-------0-------0-------0------|

 C:-------------------------------|-------------------------------|
HH:----------------------------0--|--------------------------00-00|
hh:0000000000000000000000000000-00|00000000000000000000000000--0--|
 S:-------------------------------|-------------------------------|
 B:0-------0-------0-------0------|0-------0-------0-------0------|

 C:-------------------------------|-------------------------------|
HH:----------------------------0--|--------------------------00-00|
hh:0000000000000000000000000000-00|00000000000000000000000000--0--|
 S:-------------------------------|-------------------------------|
 B:0-------0-------0-------0------|0-------0-------0-------0------|

 C:-------------------------------|-------------------------------|
HH:----------------------------0--|--------------------------00-00|
hh:0000000000000000000000000000-00|00000000000000000000000000--0--|
 S:-------------------------------|-------------------------------|
 B:0-------0-------0-------0------|0-------0-------0-------0------|

 C:-------------------------------|-------------------------------|
HH:-------------------------------|--------------------------0----|
hh:000000000000000000000000---0000|0-0-0-0-0-0-0-0-0-0-0-0--------|
 S:------------------------000----|------------------------0-0-0-0|
 B:0-------0-------0-------0------|0-------0-------0-------0------|

CAUTION PART IS MISSING HERE

 T:----------------|----------------|----------------|--------------0-|
 F:----------------|----------------|----------------|------------00--|
 C:----------------|----------------|----------------|----------------|
HH:--0---0---0---0-|--0---0---0---0-|--0---0---0---0-|--0---0---0-----|
hh:----------------|----------------|----------------|----------------|
 S:--0---0---0---0-|--0---0---0---0-|--0---0---0---0-|--0---0---0----F|
 B:0---0---0---0---|0---0---0---0---|0---0---0---0---|0---0---0---0---|

 C:-------------------------------|-------------------------------|
HH:----------------------------0--|--------------------------00-00|
hh:0000000000000000000000000000-00|00000000000000000000000000--0--|
 S:-------------------------------|-------------------------------|
 B:0-------0-------0-------0------|0-------0-------0-------0------|

 C:-------------------------------|-------------------------------|
HH:----------------------------0--|--------------------------00-00|
hh:0000000000000000000000000000-00|00000000000000000000000000--0--|
 S:-------------------------------|-------------------------------|
 B:0-------0-------0-------0------|0-------0-------0-------0------|

 C:-------------------------------|-------------------------------|
HH:----------------------------0--|--------------------------00-00|
hh:0000000000000000000000000000-00|00000000000000000000000000--0--|
 S:-------------------------------|-------------------------------|
 B:0-------0-------0-------0------|0-------0-------0-------0------|

 C:-------------------------------|-------------------------------|
HH:----------------------------0--|--------------------------00-00|
hh:0000000000000000000000000000-00|00000000000000000000000000--0--|
 S:-------------------------------|-------------------------------|
 B:0-------0-------0-------0------|0-------0-------0-------0------|

 C:-------------------------------|-------------------------------|
HH:----------------------------0--|--------------------------00-00|
hh:0000000000000000000000000000-00|00000000000000000000000000--0--|
 S:----0-------0-------0-------0--|----0-------0-------0-----00000|
 B:0-------0-------0-------0------|0-------0-------0-------0------|

 C:-------------------------------|-------------------------------|
HH:----------------------------0--|--------------------------00-00|
hh:0000000000000000000000000000-00|00000000000000000000000000--0--|
 S:----0-------0-------0-------0--|----0-------0-------0-------0--|
 B:0-------0-------0-------0------|0-------0-------0-------0------|

 C:----------------|----------------|----------------|--------------0-|
HH:--0---0---0---0-|--0---0---0---0-|--0---0---0---0-|--0---0---0-----|
hh:----------------|----------------|----------------|----------------|
 S:--0---0---0---0-|--0---0---0---0-|--0---0---0---0-|--0---0---0---0-|
 B:0---0---0---0---|0---0---0---0---|0---0---0---0---|0---0---0---0-0-|

 C:----------------|----------------|----------------|----------------|
HH:--0---0---0---0-|--0---0---0---0-|--0---0---0---0-|--0---0---------|
hh:----------------|----------------|----------------|----------------|
 S:--0---0---0---0-|--0---0---0---0-|--0---0---0---0-|--0---0---------|
 t:----------------|----------------|----------------|---------00-----|
 T:----------------|----------------|----------------|-----------00---|
 F:----------------|----------------|----------------|-------------00-|
 B:0---0---0---0---|0---0---0---0---|0---0---0---0---|0---0---0-------|

 C:--------------------------|---------------------------|
HH:--------------------------|---------------------------|
hh:--------------------------|---------------------------|
 S:------0---------0-------0-|--------0-------0---------0|
 t:--------------------------|---------------------------|
 T:--------------------------|---------------------------|
 F:0-0-0---0-0-0-0---0-0-0---|0-0-0-0---0-0-0---0-0-0-0--|
 B:--------------------------|---------------------------|

 C:-----------------------0-0|---------------------------|
HH:--------------------------|---------------------------|
hh:--------------------------|---------------------------|
 S:------0---------0---------|-------0--------0--------0-|
 t:--------------------------|---------------------------|
 T:--------------------------|---------------------------|
 F:0-0-0---0-0-0-0---0-0-0---|0-0-0---0-0-0-0--0-0-0-0---|
 B:--------------------------|---------------------------|

 C:--------------------------|-----------------------0-0-|
HH:--------------------------|---------------------------|
hh:--------------------------|---------------------------|
 S:------0---------0-------0-|--------0-------0----------|
 t:--------------------------|---------------------------|
 T:--------------------------|---------------------------|
 F:0-0-0---0-0-0-0---0-0-0---|0-0-0-0---0-0-0---0-0-0----|
 B:--------------------------|---------------------------|

 C:--------------------------|---------------------------|
HH:--------------------------|---------------------------|
hh:--------------------------|---------------------------|
 S:------0---------0-------0-|--------0-------0---------0|
 t:--------------------------|---------------------------|
 T:--------------------------|---------------------------|
 F:0-0-0---0-0-0-0---0-0-0---|0-0-0-0---0-0-0---0-0-0-0--|
 B:--------------------------|---------------------------|

 C:---------------------0--0-|---------------|
HH:--------------------------|--0---0---0---0|
hh:--------------------------|---------------|
 S:--------------------------|---------------|
 t:--------------------------|---------------|
 T:----000---000---000-------|---------------|
 F:-000---000---000----------|--0---0---0---0|
 B:--------------------------|-0---0---0---0-|

 C:----------------|----------------|--------------0-|
HH:--0---0---0---0-|--0---0---0---0-|--0---0---0-----|
hh:----------------|----------------|----------------|
 S:--0---0---0---0-|--0---0---0---0-|--0---0---0---0-|
 t:----------------|----------------|----------------|
 T:----------------|----------------|----------------|
 F:----------------|----------------|----------------|
 B:0---0---0---0---|0---0---0---0---|0---0---0---0-0-|

 C:----------------|----------------|----------------|----------------|
HH:--0---0---0---0-|--0---0---0---0-|--0---0---0---0-|--0---0---0-----|
hh:----------------|----------------|----------------|----------------|
 S:--0---0---0---0-|--0---0---0---0-|--0---0---0---0-|--0---0---0-----|
 t:----------------|----------------|----------------|--------------0-| 
 T:----------------|----------------|----------------|----------------|
 F:----------------|----------------|----------------|-------------0-0|
 B:0---0---0---0---|0---0---0---0---|0---0---0---0---|0---0---0---0---|

 C:-------------------------------|-------------------------------|
HH:----------------------------0--|--------------------------00-00|
hh:0000000000000000000000000000-00|00000000000000000000000000--0--|
 S:-------------------------------|-------------------------------|
 t:-------------------------------|-------------------------------|
 T:-------------------------------|-------------------------------|
 F:-------------------------------|-------------------------------|
 B:0-------0-------0-------0------|0-------0-------0-------0------|

 C:-------------------------------|-------------------------------|
HH:----------------------------0--|--------------------------00-00|
hh:0000000000000000000000000000-00|00000000000000000000000000--0--|
 S:-------------------------------|-------------------------------|
 t:-------------------------------|-------------------------------|
 T:-------------------------------|-------------------------------|
 F:-------------------------------|-------------------------------|
 B:0-------0-------0-------0------|0-------0-------0-------0------|

 C:-------------------------------|-------------------------------|
HH:----------------------------0--|--------------------------00-00|
hh:0000000000000000000000000000-00|00000000000000000000000000--0--|
 S:-------------------------------|-------------------------------|
 t:-------------------------------|-------------------------------|
 T:-------------------------------|-------------------------------|
 F:-------------------------------|-------------------------------|
 B:0-------0-------0-------0------|0-------0-------0-------0------|

 C:-------------------------------|-------------------------------|
HH:----------------------------0--|--------------------------00-00|
hh:0000000000000000000000000000-00|00000000000000000000000000--0--|
 S:-------------------------------|-------------------------------|
 t:-------------------------------|-------------------------------|
 T:-------------------------------|-------------------------------|
 F:-------------------------------|-------------------------------|
 B:0-------0-------0-------0------|0-------0-------0-------0------|

 C:-------------------------------|-------------------------------|
HH:----------------------------0--|--------------------------00-00|
hh:0000000000000000000000000000-00|00000000000000000000000000--0--|
 S:-------------------------------|-------------------------------|
 t:-------------------------------|-------------------------------|
 T:-------------------------------|-------------------------------|
 F:-------------------------------|-------------------------------|
 B:0-------0-------0-------0------|0-------0-------0-------0------|

 C:-------------------------------|-------------------------------|
HH:----------------------------0--|--------------------------00-00|
hh:0000000000000000000000000000-00|00000000000000000000000000--0--|
 S:-------------------------------|-------------------------------|
 t:-------------------------------|-------------------------------|
 T:-------------------------------|-------------------------------|
 F:-------------------------------|-------------------------------|
 B:0-------0-------0-------0------|0-------0-------0-------0------|

 C:-------------------------------|-------------------------------|
HH:-------------------------------|-------------------------------|
hh:0000000000000000000000000000000|0000000000000000000000000000000|
 S:----0-------0-------0-------0--|----0-------0-------0-------0--|
 t:-------------------------------|-------------------------------|
 T:-------------------------------|-------------------------------|
 F:-------------------------------|-------------------------------|
 B:0-------0-------0-------0------|0-------0-------0-------0------|

 C:-------------------------------|-------------------------------|
HH:-------------------------------|-------------------------------|
hh:0000000000000000000000000000000|00000000000000000000000--------|
 S:----0-------0-------0-------0--|----0-------0-------0---0000000|
 t:-------------------------------|-------------------------------|
 T:-------------------------------|-------------------------------|
 F:-------------------------------|-------------------------------|
 B:0-------0-------0-------0------|0-------0-------0-------0------|

 C:----------------|----------------|--0-------------|
HH:--0---0---0---0-|--0---0---0---0-|------0---0---0-|
hh:----------------|----------------|----------------|
 S:--0---0---0---0-|--0---0---0---0-|--0---0---0---0-|
 t:----------------|----------------|----------------|
 T:----------------|----------------|----------------|
 F:----------------|----------------|----------------|
 B:0---0---0---0---|0---0---0---0---|0---0---0---0-0-|


 C:----------------|------0---------|----------------|
HH:--0---0---0---0-|--0-------0---0-|--0---0---0---0-|
hh:----------------|----------------|----------------|
 S:--0---0---0---0-|--0---0---0---0-|--0---0---0---0-|
 t:----------------|----------------|----------------|
 T:----------------|----------------|----------------|
 F:----------------|----------------|----------------|
 B:0---0---0---0---|0---0---0---0---|0---0---0---0-0-|


 C:----------0-----|----------------|--------------0-|
HH:--0---0-------0-|--0---0---0---0-|--0---0---0-----|
hh:----------------|----------------|----------------|
 S:--0---0---0---0-|--0---0---0---0-|--0---0---0---0-|
 t:----------------|----------------|----------------|
 T:----------------|----------------|----------------|
 F:----------------|----------------|----------------|
 B:0---0---0---0---|0---0---0---0---|0---0---0---0-0-|


 C:--0---0---0---0-|--0---0---0---0-|--0---0---0---0-|
HH:----------------|----------------|----------------|
hh:----------------|----------------|----------------|
 S:--0---0---0---0-|--0---0---0---0-|--0---0---0---0-|
 t:----------------|----------------|----------------|
 T:----------------|----------------|----------------|
 F:----------------|----------------|----------------|
 B:0---0---0---0---|0---0---0---0---|0---0---0---0---|

 C:--0---0---0---0-|--0---0---0---0-|--0---0---0---0-|
HH:----------------|----------------|----------------|
hh:----------------|----------------|----------------|
 S:--0---0---0---0-|--0---0---0---0-|--0---0---0---0-|
 t:----------------|----------------|----------------|
 T:----------------|----------------|----------------|
 F:----------------|----------------|----------------|
 B:0---0---0---0---|0---0---0---0---|0---0---0---0---|

 C:--0---0---0---0-|--0---0---0---0-|---------------0|
HH:----------------|----------------|----------------|
hh:----------------|----------------|----------------|
 S:--0---0---0---0-|--0---0---0---0-|0--0-0-0-0-00-0-|
 t:----------------|----------------|----------------|
 T:----------------|----------------|----------------|
 F:----------------|----------------|----------------|
 B:0---0---0---0---|0---0---0---0---|---------------0|

 C:xxxxxxxxxxxxx--0|
HH:----------------|
hh:----------------|
 S:----------------|
 t:----------------|
 T:----------------|
 F:----------------|
 B:---------------0|

NOTE: This is my FIRST tab, it is missing one part
But other than that, it is spot on. Please rate this
and comment on it. Also any corrections, please help.
I will soon be submitting a shortneded version of this
for easy print out. Thank you and enjoy.
	
comments
We did not receive enough feedback on this tab! Please rate:
print report bad tab
1 2 3 4 5
I want to post or [tab]
guest
You may want to rate the tab now too:
select rating
Please do not post tabs as comments. Select "correction" instead!