Oops, an error
Loading. Please wait.

Unfinished Tab

ver1
ver1

Intro

Whole song

Interactive

More versions @911Tabs.com
12,644 views 18 this week
1 commentread comment
1 2 3 4 5
excellent!
x 3
Autoscroll
+/-
esc
set tempo
stop
Contributor
Difficulty
Tuning
intermediate
C G C F A D
Hey! There's an official Ultimate Guitar app which is ideal
for learning songs when you're away from computer. Get the app
WARNING: You are trying to view
                                    content from Ultimate-Guitar.com
                                    in an unauthorized application,
                                    which is prohibited.

                                    Please use an official Ultimate
                                    Guitar Tabs application for iPhone,
                                    iPad or Android to access legitimate
                                    chords, guitar, bass, and drum tabs
                                    from Ultimate-Guitar.com database.

                                    Type "ultimate guitar tabs" in Apple
                                    App Store's or Android Market's
                                    search to find the application.
Song: Unfinished
Artist: Stone Sour
Album: Audio Secrecy

I recently posted the Guita Pro 5 version of the song, and I just learned that you can 
the tab in Ascii format...
So here it is in the text version. Unfortunatly this is my first tab and I am having 
with the solo, so until someone
posts it, feel free to use my version.

Cheers UG

============================================================================

Lead Guitar

                                                                     Q    Q     Q    Q
D||-------|-------|-------|-------|-------|-------|-------|-------|-----------------------|
A||-------|-------|-------|-------|-------|-------|-------|-------|-----------------------|
F||-------|-------|-------|-------|-------|-------|-------|-------|------------10----7----|
C||-------|-------|-------|-------|-------|-------|-------|-------|--0----0---------------|
G||-------|-------|-------|-------|-------|-------|-------|-------|--0----0---------------|
C||-------|-------|-------|-------|-------|-------|-------|-------|--0----0---------------|


  Q    Q    Q    Q       Q    Q    Q    Q       Q    Q    Q    Q       Q    Q     Q    Q
----------------------|----------------------|----------------------|-----------------------|
----------------------|----------------------|----------------------|-----------------------|
--8----7----5----8----|----------------------|-------5--------------|------------10----7----|
----------------------|--0----0----6----5----|--6---------6----5----|--0----0---------------|
----------------------|--0----0--------------|----------------------|--0----0---------------|
----------------------|--0----0--------------|----------------------|--0----0---------------|


                                                                       PM   PM   PM   PM
  Q    Q    Q    Q       Q    Q    Q    Q       Q    Q    Q    Q       Q    Q    Q    Q
----------------------|----------------------|----------------------|----------------------|
----------------------|----------------------|----------------------|----------------------|
--8----7----5----8----|----------------------|-------5--------------|----------------------|
----------------------|--0----0----6----5----|--6---------6----5----|--0----0----0----0----|
----------------------|--0----0--------------|----------------------|--0----0----0----0----|
----------------------|--0----0--------------|----------------------|--0----0----0----0----|


  PM   PM   PM   PM      PM   PM   PM                 PM                 PM   PM   PM   PM
  Q    Q    Q    Q       Q    Q    Q    Q        Q    Q    Q     Q       Q    Q    Q    Q
----------------------|-----------------------|-----------------------|----------------------|
----------------------|-----------------------|-----------------------|----------------------|
----------------------|-----------------8S----|--7---------5S----7----|----------------------|
--0----0----0----0----|--0----0----0----------|-------0---------------|--0----0----0----0----|
--0----0----0----0----|--0----0----0----6S----|--5----0----3S----5----|--0----0----0----0----|
--0----0----0----0----|--0----0----0----------|-------0---------------|--0----0----0----0----|


  PM   PM   PM   PM      PM   PM   PM                 PM
  Q    Q    Q    Q       Q    Q    Q    Q        Q    Q    Q     Q       W
----------------------|-----------------------|-----------------------|-------------------|-------|
----------------------|-----------------------|-----------------------|-------------------|-------|
----------------------|-----------------8S----|--7---------5S----7----|--3----------------|-------|
--0----0----0----0----|--0----0----0----------|-------0---------------|--3----------------|-------|
--0----0----0----0----|--0----0----0----6S----|--5----0----3S----5----|--1----------------|-------|
--0----0----0----0----|--0----0----0----------|-------0---------------|-------------------|-------|


                      >                                PM   PM   PM   PM      PM   PM   PM  PM
  Q    E   E   E   E  E  E     Q     Q    Q    Q       Q    Q    Q    Q       Q    Q    Q   Q
----------------------------|-----------------------|----------------------|----------------------|
----------------------------|-----------------------|----------------------|----------------------|
----------------------------|-----------------------|----------------------|----------------------|
--8----7h--8p--7------7-----|-----------------------|--0----0----0----0----|--0----0----0----0----|
------------------10--------|--8----10----7----8----|--0----0----0----0----|--0----0----0----0----|
----------------------------|-----------------------|--0----0----0----0----|--0----0----0----0----|


                                                PM   PM   PM   PM       PM    PM    PM   
PM
  Q    Q    Q    Q       Q    Q    Q    Q       Q    Q    Q    Q        Q     Q     Q    
Q
----------------------|----------------------|-----------------------|-------------------------|
----------------------|----------------------|-----------------------|-------------------------|
----------------------|--5-------------------|-----------------------|-------------------------|
--0----6----5----6----|-------6----5----6----|--0----0----0----5h----|--6p----5p----3h----5----|
--0-------------------|----------------------|--0----0----0----5h----|--6p----5p----3h----5----|
--0-------------------|----------------------|--0----0----0----5h----|--6p----5p----3h----5----|


  PM   PM   PM                 PM                 PM   PM   PM   PM       PM    PM    PM 
  PM
  Q    Q    Q    Q        Q    Q    Q     Q       Q    Q    Q    Q        Q     Q     Q  
  Q
-----------------------|-----------------------|-----------------------|-------------------------|
-----------------------|-----------------------|-----------------------|-------------------------|
-----------------8S----|--7---------5S----7----|-----------------------|-------------------------|
--0----0----0----------|-------0---------------|--0----0----0----5h----|--6p----5h----6p----5----|
--0----0----0----6S----|--5----0----3S----5----|--0----0----0----5h----|--6p----5h----6p----5----|
--0----0----0----------|-------0---------------|--0----0----0----5h----|--6p----5h----6p----5----|


  PM   PM   PM                 PM
  Q    Q    Q    Q        Q    Q    Q     Q       W
-----------------------|-----------------------|-------------------|-------|
-----------------------|-----------------------|-------------------|-------|
-----------------8S----|--7---------5S----7----|--3----------------|-------|
--0----0----0----------|-------0---------------|--3----------------|-------|
--0----0----0----6S----|--5----0----3S----5----|--1----------------|-------|
--0----0----0----------|-------0---------------|-------------------|-------|


                      >                                PM   PM   PM   PM      PM   PM   PM  PM
  Q    E   E   E   E  E  E     Q     Q    Q    Q       Q    Q    Q    Q       Q    Q    Q   Q
----------------------------|-----------------------|----------------------|----------------------|
----------------------------|-----------------------|----------------------|----------------------|
----------------------------|-----------------------|----------------------|----------------------|
--8----7h--8p--7------7-----|-----------------------|--0----0----0----0----|--0----0----0----0----|
------------------10--------|--8----10----7----8----|--0----0----0----0----|--0----0----0----0----|
----------------------------|-----------------------|--0----0----0----0----|--0----0----0----0----|


                                                         PM   PM   PM   PM
  Q     Q    Q      Q        Q      Q     Q      Q       Q    Q    Q    Q
-------------------------|----------------------------|----------------------|
-------------------------|----------------------------|----------------------|
--7S----9----9S----10----|--10S----12----12S----14----|----------------------|
-------------------------|----------------------------|--0----0----0----0----|
--5S----7----7S-----8----|---8S----10----10S----12----|--0----0----0----0----|
-------------------------|----------------------------|--0----0----0----0----|


  PM   PM   PM   PM      PM   PM   PM   PM      PM   PM   PM   PM      PM   PM   PM   PM
  Q    Q    Q    Q       Q    Q    Q    Q       Q    Q    Q    Q       Q    Q    Q    Q
----------------------|----------------------|----------------------|----------------------|
----------------------|----------------------|----------------------|----------------------|
----------------------|--3----3----3----3----|--3----3----3----3----|--5----5----5----5----|
--0----0----0----0----|----------------------|----------------------|----------------------|
--0----0----0----0----|--1----1----1----1----|--1----1----1----1----|--3----3----3----3----|
--0----0----0----0----|----------------------|----------------------|----------------------|


  PM   PM   PM   PM
  Q    Q    Q    Q       Q     Q    Q      Q        Q      Q     Q      Q
----------------------|-------------------------|----------------------------|
----------------------|-------------------------|----------------------------|
--5----5----5----5----|--7S----9----9S----10----|--10S----12----12S----14----|
----------------------|-------------------------|----------------------------|
--3----3----3----3----|--5S----7----7S-----8----|---8S----10----10S----12----|
----------------------|-------------------------|----------------------------|


  PM   PM   PM   PM      PM   PM   PM   PM      PM   PM   PM   PM      PM   PM   PM   PM
  Q    Q    Q    Q       Q    Q    Q    Q       Q    Q    Q    Q       Q    Q    Q    Q
----------------------|----------------------|----------------------|----------------------|
----------------------|----------------------|----------------------|----------------------|
----------------------|----------------------|--3----3----3----3----|--3----3----3----3----|
--0----0----0----0----|--0----0----0----0----|----------------------|----------------------|
--0----0----0----0----|--0----0----0----0----|--1----1----1----1----|--1----1----1----1----|
--0----0----0----0----|--0----0----0----0----|----------------------|----------------------|


  PM   PM   PM   PM      PM   PM
  Q    Q    Q    Q       Q    Q    H           W                           Q    Q     Q  
 Q
----------------------|---------------------|-------------------|-------|-----------------------|
----------------------|---------------------|-------------------|-------|-----------------------|
--5----5----5----5----|--5----5-------------|-------------------|-------|------------10----7----|
----------------------|------------5--------|--7----------------|-------|--0----0---------------|
--3----3----3----3----|--3----3----5--------|--7----------------|-------|--0----0---------------|
----------------------|------------5--------|--7----------------|-------|--0----0---------------|


  Q    Q    Q    Q       Q    Q    Q    Q       Q    Q    Q    Q       Q    Q     Q    Q
----------------------|----------------------|----------------------|-----------------------|
----------------------|----------------------|----------------------|-----------------------|
--8----7----5----8----|----------------------|-------5--------------|------------10----7----|
----------------------|--0----0----6----5----|--6---------6----5----|--0----0---------------|
----------------------|--0----0--------------|----------------------|--0----0---------------|
----------------------|--0----0--------------|----------------------|--0----0---------------|


                                              PM   PM   PM   PM      PM   PM   PM   PM
  Q    Q    Q    Q       Q    Q               Q    Q    Q    Q       Q    Q    Q    Q
----------------------|------------|-------|----------------------|----------------------|
----------------------|------------|-------|----------------------|----------------------|
--8----7----5----8----|------------|-------|----------------------|----------------------|
----------------------|--0----0----|-------|--0----0----0----0----|--0----0----0----0----|
----------------------|--0----0----|-------|--0----0----0----0----|--0----0----0----0----|
----------------------|--0----0----|-------|--0----0----0----0----|--0----0----0----0----|


  PM   PM   PM                 PM                 PM   PM   PM   PM      PM   PM   PM   PM
  Q    Q    Q    Q        Q    Q    Q     Q       Q    Q    Q    Q       Q    Q    Q    Q
-----------------------|-----------------------|----------------------|----------------------|
-----------------------|-----------------------|----------------------|----------------------|
-----------------8S----|--7---------5S----7----|----------------------|----------------------|
--0----0----0----------|-------0---------------|--0----0----0----0----|--0----0----0----0----|
--0----0----0----6S----|--5----0----3S----5----|--0----0----0----0----|--0----0----0----0----|
--0----0----0----------|-------0---------------|--0----0----0----0----|--0----0----0----0----|


  PM   PM   PM                 PM
  Q    Q    Q    Q        Q    Q    Q     Q       W
-----------------------|-----------------------|-------------------|-------|
-----------------------|-----------------------|-------------------|-------|
-----------------8S----|--7---------5S----7----|--3----------------|-------|
--0----0----0----------|-------0---------------|--3----------------|-------|
--0----0----0----6S----|--5----0----3S----5----|--1----------------|-------|
--0----0----0----------|-------0---------------|-------------------|-------|


                      >                                PM   PM   PM   PM      PM   PM   PM  PM
  Q    E   E   E   E  E  E     Q     Q    Q    Q       Q    Q    Q    Q       Q    Q    Q   Q
----------------------------|-----------------------|----------------------|----------------------|
----------------------------|-----------------------|----------------------|----------------------|
----------------------------|-----------------------|----------------------|----------------------|
--8----7h--8p--7------7-----|-----------------------|--0----0----0----0----|--0----0----0----0----|
------------------10--------|--8----10----7----8----|--0----0----0----0----|--0----0----0----0----|
----------------------------|-----------------------|--0----0----0----0----|--0----0----0----0----|


                                                PM   PM   PM   PM       PM    PM    PM   
PM
  Q    Q    Q    Q       Q    Q    Q    Q       Q    Q    Q    Q        Q     Q     Q    
Q
----------------------|----------------------|-----------------------|-------------------------|
----------------------|----------------------|-----------------------|-------------------------|
----------------------|--5-------------------|-----------------------|-------------------------|
--0----6----5----6----|-------6----5----6----|--0----0----0----5h----|--6p----5p----3h----5----|
--0-------------------|----------------------|--0----0----0----5h----|--6p----5p----3h----5----|
--0-------------------|----------------------|--0----0----0----5h----|--6p----5p----3h----5----|


  PM   PM   PM                 PM                 PM   PM   PM   PM       PM    PM    PM 
  PM
  Q    Q    Q    Q        Q    Q    Q     Q       Q    Q    Q    Q        Q     Q     Q  
  Q
-----------------------|-----------------------|-----------------------|-------------------------|
-----------------------|-----------------------|-----------------------|-------------------------|
-----------------8S----|--7---------5S----7----|-----------------------|-------------------------|
--0----0----0----------|-------0---------------|--0----0----0----5h----|--6p----5h----6p----5----|
--0----0----0----6S----|--5----0----3S----5----|--0----0----0----5h----|--6p----5h----6p----5----|
--0----0----0----------|-------0---------------|--0----0----0----5h----|--6p----5h----6p----5----|


  PM   PM   PM                 PM
  Q    Q    Q    Q        Q    Q    Q     Q       W
-----------------------|-----------------------|-------------------|-------|
-----------------------|-----------------------|-------------------|-------|
-----------------8S----|--7---------5S----7----|--3----------------|-------|
--0----0----0----------|-------0---------------|--3----------------|-------|
--0----0----0----6S----|--5----0----3S----5----|--1----------------|-------|
--0----0----0----------|-------0---------------|-------------------|-------|


                                                    PM   PM   PM   PM      PM   PM   PM  
PM
  Q     Q    Q     Q       Q     Q    Q     Q       Q    Q    Q    Q       Q    Q    Q   
Q
------------------------|------------------------|----------------------|----------------------|
------------------------|------------------------|----------------------|----------------------|
--7S----5----5S----9----|--9S----5----5S----7----|----------------------|----------------------|
------------------------|------------------------|--0----0----0----0----|--0----0----0----0----|
--5S----3----3S----7----|--7S----3----3S----5----|--0----0----0----0----|--0----0----0----0----|
------------------------|------------------------|--0----0----0----0----|--0----0----0----0----|


                                                         PM   PM   PM   PM
  Q     Q    Q      Q        Q      Q     Q      Q       Q    Q    Q    Q
-------------------------|----------------------------|----------------------|
-------------------------|----------------------------|----------------------|
--7S----9----9S----10----|--10S----12----12S----14----|----------------------|
-------------------------|----------------------------|--0----0----0----0----|
--5S----7----7S-----8----|---8S----10----10S----12----|--0----0----0----0----|
-------------------------|----------------------------|--0----0----0----0----|


  PM   PM   PM   PM      PM   PM   PM   PM      PM   PM   PM   PM      PM   PM   PM   PM
  Q    Q    Q    Q       Q    Q    Q    Q       Q    Q    Q    Q       Q    Q    Q    Q
----------------------|----------------------|----------------------|----------------------|
----------------------|----------------------|----------------------|----------------------|
----------------------|--3----3----3----3----|--3----3----3----3----|--5----5----5----5----|
--0----0----0----0----|----------------------|----------------------|----------------------|
--0----0----0----0----|--1----1----1----1----|--1----1----1----1----|--3----3----3----3----|
--0----0----0----0----|----------------------|----------------------|----------------------|


  PM   PM   PM   PM
  Q    Q    Q    Q       Q     Q    Q      Q        Q      Q     Q      Q
----------------------|-------------------------|----------------------------|
----------------------|-------------------------|----------------------------|
--5----5----5----5----|--7S----9----9S----10----|--10S----12----12S----14----|
----------------------|-------------------------|----------------------------|
--3----3----3----3----|--5S----7----7S-----8----|---8S----10----10S----12----|
----------------------|-------------------------|----------------------------|


  PM   PM   PM   PM      PM   PM   PM   PM      PM   PM   PM   PM      PM   PM   PM   PM
  Q    Q    Q    Q       Q    Q    Q    Q       Q    Q    Q    Q       Q    Q    Q    Q
----------------------|----------------------|----------------------|----------------------|
----------------------|----------------------|----------------------|----------------------|
----------------------|----------------------|--3----3----3----3----|--3----3----3----3----|
--0----0----0----0----|--0----0----0----0----|----------------------|----------------------|
--0----0----0----0----|--0----0----0----0----|--1----1----1----1----|--1----1----1----1----|
--0----0----0----0----|--0----0----0----0----|----------------------|----------------------|


  PM   PM   PM   PM      PM   PM
  Q    Q    Q    Q       Q    Q    Q    Q       Q     Q    Q      Q
----------------------|----------------------|-------------------------|
----------------------|----------------------|-------------------------|
--5----5----5----5----|--5----5----5----5----|--7S----9----9S----10----|
----------------------|----------------------|-------------------------|
--3----3----3----3----|--3----3----3----3----|--5S----7----7S-----8----|
----------------------|----------------------|-------------------------|


   Q      Q     Q      Q        H         H            H         H            H         H
----------------------------|----------------------|----------------------|----------------------|
----------------------------|----------------------|----------------------|----------------------|
--10S----12----12S----14----|--14--------14--------|--14--------14--------|--10--------10--------|
----------------------------|----------------------|----------------------|----------------------|
---8S----10----10S----12----|--12--------12--------|--12--------12--------|---8---------8--------|
----------------------------|----------------------|----------------------|----------------------|


   H         H            H         H            H         H            H         H
----------------------|----------------------|----------------------|----------------------|
----------------------|----------------------|----------------------|----------------------|
--10--------10--------|--12--------12--------|--12--------12--------|--12--------12--------|
----------------------|----------------------|----------------------|----------------------|
---8---------8--------|--10--------10--------|--10--------10--------|--10--------10--------|
----------------------|----------------------|----------------------|----------------------|


   H         H            H         H            H         H            H         H
----------------------|----------------------|----------------------|----------------------|
----------------------|----------------------|----------------------|----------------------|
--12--------12--------|--14--------14--------|--14--------14--------|--17--------17--------|
----------------------|----------------------|----------------------|----------------------|
--10--------10--------|--12--------12--------|--12--------12--------|--15--------15--------|
----------------------|----------------------|----------------------|----------------------|


   H         H            H         H            H        H           W
----------------------|----------------------|---------------------|-------------------|
----------------------|----------------------|---------------------|-------------------|
--17--------17--------|--19--------19--------|--19-----------------|-------------------|
----------------------|----------------------|------------5--------|--7----------------|
--15--------15--------|--17--------17--------|--17--------5--------|--7----------------|
----------------------|----------------------|------------5--------|--7----------------|


-------------------||
-------------------||
-------------------||
-------------------||
-------------------||
-------------------||

============================================================================

Rhythm Guitar

     Q    Q    Q    Q       Q    Q    Q    Q       Q    Q    Q    Q       Q    Q    Q    Q
D||----------------------|----------------------|----------------------|----------------------|
A||----------------------|----------------------|----------------------|----------------------|
F||----------------------|----------------------|----------------------|----------------------|
C||--0----0--------------|----------------------|--0----0--------------|----------------------|
G||--0----0----8----5----|--6----5----3----6----|--0----0--------------|-------3--------------|
C||--0----0--------------|----------------------|--0----0----6----5----|--6---------6----5----|


  Q    Q    Q    Q       Q    Q    Q    Q       Q    Q    Q    Q       Q    Q    Q    Q
----------------------|----------------------|----------------------|----------------------|
----------------------|----------------------|----------------------|----------------------|
----------------------|----------------------|----------------------|----------------------|
--0----0--------------|----------------------|--0----0--------------|----------------------|
--0----0----8----5----|--6----5----3----6----|--0----0--------------|-------3--------------|
--0----0--------------|----------------------|--0----0----6----5----|--6---------6----5----|


  Q    Q    Q    Q       Q    Q    Q    Q       Q    Q    Q    Q       Q    Q    Q    Q
----------------------|----------------------|----------------------|----------------------|
----------------------|----------------------|----------------------|----------------------|
----------------------|----------------------|----------------------|----------------------|
--0----0--------------|----------------------|--0----0--------------|----------------------|
--0----0----8----5----|--6----5----3----6----|--0----0--------------|-------3--------------|
--0----0--------------|----------------------|--0----0----6----5----|--6---------6----5----|


  Q    Q    Q    Q       Q    Q    Q    Q       Q    Q    Q    Q       Q    Q    Q    Q
----------------------|----------------------|----------------------|----------------------|
----------------------|----------------------|----------------------|----------------------|
----------------------|----------------------|----------------------|----------------------|
--0----0--------------|----------------------|--0----0--------------|----------------------|
--0----0----8----5----|--6----5----3----6----|--0----0--------------|-------3--------------|
--0----0--------------|----------------------|--0----0----6----5----|--6---------6----5----|


  PM   PM   PM   PM      PM   PM   PM   PM      PM   PM   PM                 PM
  Q    Q    Q    Q       Q    Q    Q    Q       Q    Q    Q    Q        Q    Q    Q     Q
----------------------|----------------------|-----------------------|-----------------------|
----------------------|----------------------|-----------------------|-----------------------|
----------------------|----------------------|-----------------8S----|--7---------5S----7----|
--0----0----0----0----|--0----0----0----0----|--0----0----0----------|-------0---------------|
--0----0----0----0----|--0----0----0----0----|--0----0----0----6S----|--5----0----3S----5----|
--0----0----0----0----|--0----0----0----0----|--0----0----0----------|-------0---------------|


  PM   PM   PM   PM      PM   PM   PM   PM      PM   PM   PM                 PM
  Q    Q    Q    Q       Q    Q    Q    Q       Q    Q    Q    Q        Q    Q    Q     Q
----------------------|----------------------|-----------------------|-----------------------|
----------------------|----------------------|-----------------------|-----------------------|
----------------------|----------------------|-----------------8S----|--7---------5S----7----|
--0----0----0----0----|--0----0----0----0----|--0----0----0----------|-------0---------------|
--0----0----0----0----|--0----0----0----0----|--0----0----0----6S----|--5----0----3S----5----|
--0----0----0----0----|--0----0----0----0----|--0----0----0----------|-------0---------------|


  3                   -----------------   3                   -----------------
  W                                       W
-------------------|-------------------|-------------------|-------------------|
-------------------|-------------------|-------------------|-------------------|
--3----------------|-------------------|-------------------|-------------------|
--3----------------|-------------------|--1----------------|-------------------|
--1----------------|-------------------|--1----------------|-------------------|
-------------------|-------------------|--1----------------|-------------------|


  PM   PM   PM   PM      PM   PM   PM   PM
  Q    Q    Q    Q       Q    Q    Q    Q       Q    Q    Q    Q       Q    Q    Q    Q
----------------------|----------------------|----------------------|----------------------|
----------------------|----------------------|----------------------|----------------------|
----------------------|----------------------|----------------------|----------------------|
--0----0----0----0----|--0----0----0----0----|--0-------------------|----------------------|
--0----0----0----0----|--0----0----0----0----|--0-------------------|--3-------------------|
--0----0----0----0----|--0----0----0----0----|--0----6----5----6----|-------6----5----6----|


  PM   PM   PM                                      PM   PM   PM                 PM
  Q    Q    Q    Q        Q     Q     Q     Q       Q    Q    Q    Q        Q    Q    Q  
  Q
-----------------------|-------------------------|-----------------------|-----------------------|
-----------------------|-------------------------|-----------------------|-----------------------|
-----------------------|-------------------------|-----------------8S----|--7---------5S----7----|
--0----0----0----5h----|--6p----5p----3h----5----|--0----0----0----------|-------0---------------|
--0----0----0----5h----|--6p----5p----3h----5----|--0----0----0----6S----|--5----0----3S----5----|
--0----0----0----5h----|--6p----5p----3h----5----|--0----0----0----------|-------0---------------|


  PM   PM   PM                                      PM   PM   PM                 PM
  Q    Q    Q    Q        Q     Q     Q     Q       Q    Q    Q    Q        Q    Q    Q  
  Q
-----------------------|-------------------------|-----------------------|-----------------------|
-----------------------|-------------------------|-----------------------|-----------------------|
-----------------------|-------------------------|-----------------8S----|--7---------5S----7----|
--0----0----0----5h----|--6p----5h----6p----5----|--0----0----0----------|-------0---------------|
--0----0----0----5h----|--6p----5h----6p----5----|--0----0----0----6S----|--5----0----3S----5----|
--0----0----0----5h----|--6p----5h----6p----5----|--0----0----0----------|-------0---------------|


  3                   -----------------   3                   -----------------
  W                                       W
-------------------|-------------------|-------------------|-------------------|
-------------------|-------------------|-------------------|-------------------|
--3----------------|-------------------|-------------------|-------------------|
--3----------------|-------------------|--1----------------|-------------------|
--1----------------|-------------------|--1----------------|-------------------|
-------------------|-------------------|--1----------------|-------------------|


  PM   PM   PM   PM      PM   PM   PM   PM      PM              PM   PM   PM   PM
  Q    Q    Q    Q       Q    Q    Q    Q       Q               Q    Q    Q    Q
----------------------|----------------------|-------|-------|----------------------|
----------------------|----------------------|-------|-------|----------------------|
----------------------|----------------------|-------|-------|----------------------|
--0----0----0----0----|--0----0----0----0----|--0----|-------|--0----0----0----0----|
--0----0----0----0----|--0----0----0----0----|--0----|-------|--0----0----0----0----|
--0----0----0----0----|--0----0----0----0----|--0----|-------|--0----0----0----0----|


  PM   PM   PM   PM      PM   PM   PM   PM      PM   PM   PM   PM      PM   PM   PM   PM
  Q    Q    Q    Q       Q    Q    Q    Q       Q    Q    Q    Q       Q    Q    Q    Q
----------------------|----------------------|----------------------|----------------------|
----------------------|----------------------|----------------------|----------------------|
----------------------|--3----3----3----3----|--3----3----3----3----|--5----5----5----5----|
--0----0----0----0----|----------------------|----------------------|----------------------|
--0----0----0----0----|--1----1----1----1----|--1----1----1----1----|--3----3----3----3----|
--0----0----0----0----|----------------------|----------------------|----------------------|


  PM   PM   PM   PM                      PM   PM   PM   PM      PM   PM   PM   PM
  Q    Q    Q    Q                       Q    Q    Q    Q       Q    Q    Q    Q
----------------------|-------|-------|----------------------|----------------------|
----------------------|-------|-------|----------------------|----------------------|
--5----5----5----5----|-------|-------|----------------------|----------------------|
----------------------|-------|-------|--0----0----0----0----|--0----0----0----0----|
--3----3----3----3----|-------|-------|--0----0----0----0----|--0----0----0----0----|
----------------------|-------|-------|--0----0----0----0----|--0----0----0----0----|


  PM   PM   PM   PM      PM   PM   PM   PM      PM   PM   PM   PM      PM   PM   PM
  Q    Q    Q    Q       Q    Q    Q    Q       Q    Q    Q    Q       Q    Q    Q    Q
----------------------|----------------------|----------------------|----------------------|-------|
----------------------|----------------------|----------------------|----------------------|-------|
--3----3----3----3----|--3----3----3----3----|--5----5----5----5----|--5----5----5---------|-------|
----------------------|----------------------|----------------------|----------------------|-------|
--1----1----1----1----|--1----1----1----1----|--3----3----3----3----|--3----3----3---------|-------|
----------------------|----------------------|----------------------|----------------------|-------|


          Q    Q    Q    Q       Q    Q    Q    Q       Q    Q    Q    Q       Q    Q    Q   Q
-------|----------------------|----------------------|----------------------|----------------------|
-------|----------------------|----------------------|----------------------|----------------------|
-------|----------------------|----------------------|----------------------|----------------------|
-------|--0----0--------------|----------------------|--0----0--------------|----------------------|
-------|--0----0----8----5----|--6----5----3----6----|--0----0--------------|-------3--------------|
-------|--0----0--------------|----------------------|--0----0----6----5----|--6---------6----5----|


                                                                          PM   PM   PM   PM
  Q    Q    Q    Q       Q    Q    Q    Q       Q    Q    Q               Q    Q    Q    Q
----------------------|----------------------|-----------------|-------|----------------------|
----------------------|----------------------|-----------------|-------|----------------------|
----------------------|----------------------|-----------------|-------|----------------------|
--0----0--------------|----------------------|--0----0---------|-------|--0----0----0----0----|
--0----0----8----5----|--6----5----3----6----|--0----0---------|-------|--0----0----0----0----|
--0----0--------------|----------------------|--0----0---------|-------|--0----0----0----0----|


  PM   PM   PM   PM      PM   PM   PM                 PM                 PM   PM   PM   PM
  Q    Q    Q    Q       Q    Q    Q    Q        Q    Q    Q     Q       Q    Q    Q    Q
----------------------|-----------------------|-----------------------|----------------------|
----------------------|-----------------------|-----------------------|----------------------|
----------------------|-----------------8S----|--7---------5S----7----|----------------------|
--0----0----0----0----|--0----0----0----------|-------0---------------|--0----0----0----0----|
--0----0----0----0----|--0----0----0----6S----|--5----0----3S----5----|--0----0----0----0----|
--0----0----0----0----|--0----0----0----------|-------0---------------|--0----0----0----0----|


  PM   PM   PM   PM      PM   PM   PM                 PM
                                                                         3
  Q    Q    Q    Q       Q    Q    Q    Q        Q    Q    Q     Q       W
----------------------|-----------------------|-----------------------|-------------------|
----------------------|-----------------------|-----------------------|-------------------|
----------------------|-----------------8S----|--7---------5S----7----|--3----------------|
--0----0----0----0----|--0----0----0----------|-------0---------------|--3----------------|
--0----0----0----0----|--0----0----0----6S----|--5----0----3S----5----|--1----------------|
--0----0----0----0----|--0----0----0----------|-------0---------------|-------------------|


                                                              PM   PM   PM   PM
  -----------------   3                   -----------------
                      W                                       Q    Q    Q    Q
-------------------|-------------------|-------------------|----------------------|
-------------------|-------------------|-------------------|----------------------|
-------------------|-------------------|-------------------|----------------------|
-------------------|--1----------------|-------------------|--0----0----0----0----|
-------------------|--1----------------|-------------------|--0----0----0----0----|
-------------------|--1----------------|-------------------|--0----0----0----0----|


  PM   PM   PM   PM                                                    PM   PM   PM
  Q    Q    Q    Q       Q    Q    Q    Q       Q    Q    Q    Q       Q    Q    Q    Q
----------------------|----------------------|----------------------|-----------------------|
----------------------|----------------------|----------------------|-----------------------|
----------------------|----------------------|----------------------|-----------------------|
--0----0----0----0----|--0-------------------|----------------------|--0----0----0----5h----|
--0----0----0----0----|--0-------------------|--3-------------------|--0----0----0----5h----|
--0----0----0----0----|--0----6----5----6----|-------6----5----6----|--0----0----0----5h----|


                            PM   PM   PM                 PM                 PM   PM   PM
  Q     Q     Q     Q       Q    Q    Q    Q        Q    Q    Q     Q       Q    Q    Q  
 Q
-------------------------|-----------------------|-----------------------|-----------------------|
-------------------------|-----------------------|-----------------------|-----------------------|
-------------------------|-----------------8S----|--7---------5S----7----|-----------------------|
--6p----5p----3h----5----|--0----0----0----------|-------0---------------|--0----0----0----5h----|
--6p----5p----3h----5----|--0----0----0----6S----|--5----0----3S----5----|--0----0----0----5h----|
--6p----5p----3h----5----|--0----0----0----------|-------0---------------|--0----0----0----5h----|


                            PM   PM   PM                 PM
                                                                            3
  Q     Q     Q     Q       Q    Q    Q    Q        Q    Q    Q     Q       W
-------------------------|-----------------------|-----------------------|-------------------|
-------------------------|-----------------------|-----------------------|-------------------|
-------------------------|-----------------8S----|--7---------5S----7----|--3----------------|
--6p----5h----6p----5----|--0----0----0----------|-------0---------------|--3----------------|
--6p----5h----6p----5----|--0----0----0----6S----|--5----0----3S----5----|--1----------------|
--6p----5h----6p----5----|--0----0----0----------|-------0---------------|-------------------|


                                                              PM   PM   PM   PM
  -----------------   3                   -----------------
                      W                                       Q    Q    Q    Q
-------------------|-------------------|-------------------|----------------------|
-------------------|-------------------|-------------------|----------------------|
-------------------|-------------------|-------------------|----------------------|
-------------------|--1----------------|-------------------|--0----0----0----0----|
-------------------|--1----------------|-------------------|--0----0----0----0----|
-------------------|--1----------------|-------------------|--0----0----0----0----|


  PM   PM   PM   PM      PM              PM   PM   PM   PM      PM   PM   PM   PM
  Q    Q    Q    Q       Q               Q    Q    Q    Q       Q    Q    Q    Q
----------------------|-------|-------|----------------------|----------------------|
----------------------|-------|-------|----------------------|----------------------|
----------------------|-------|-------|----------------------|----------------------|
--0----0----0----0----|--0----|-------|--0----0----0----0----|--0----0----0----0----|
--0----0----0----0----|--0----|-------|--0----0----0----0----|--0----0----0----0----|
--0----0----0----0----|--0----|-------|--0----0----0----0----|--0----0----0----0----|


  PM   PM   PM   PM      PM   PM   PM   PM      PM   PM   PM   PM      PM   PM   PM   PM
  Q    Q    Q    Q       Q    Q    Q    Q       Q    Q    Q    Q       Q    Q    Q    Q
----------------------|----------------------|----------------------|----------------------|-------|
----------------------|----------------------|----------------------|----------------------|-------|
--3----3----3----3----|--3----3----3----3----|--5----5----5----5----|--5----5----5----5----|-------|
----------------------|----------------------|----------------------|----------------------|-------|
--1----1----1----1----|--1----1----1----1----|--3----3----3----3----|--3----3----3----3----|-------|
----------------------|----------------------|----------------------|----------------------|-------|


          PM   PM   PM   PM      PM   PM   PM   PM      PM   PM   PM   PM      PM   PM   PM  PM
          Q    Q    Q    Q       Q    Q    Q    Q       Q    Q    Q    Q       Q    Q    Q   Q
-------|----------------------|----------------------|----------------------|----------------------|
-------|----------------------|----------------------|----------------------|----------------------|
-------|----------------------|----------------------|--3----3----3----3----|--3----3----3----3----|
-------|--0----0----0----0----|--0----0----0----0----|----------------------|----------------------|
-------|--0----0----0----0----|--0----0----0----0----|--1----1----1----1----|--1----1----1----1----|
-------|--0----0----0----0----|--0----0----0----0----|----------------------|----------------------|


  PM   PM   PM   PM      PM   PM   PM
  Q    Q    Q    Q       Q    Q    Q    Q                       H        H
----------------------|----------------------|-------|-------|--------------------|
----------------------|----------------------|-------|-------|--------------------|
--5----5----5----5----|--5----5----5---------|-------|-------|--7--------7--------|
----------------------|----------------------|-------|-------|--7--------7--------|
--3----3----3----3----|--3----3----3---------|-------|-------|--5--------5--------|
----------------------|----------------------|-------|-------|--------------------|


  H        H           H        H           H        H            H         H
--------------------|--------------------|--------------------|----------------------|
--------------------|--------------------|--------------------|----------------------|
--7--------7--------|--------------------|--------------------|----------------------|
--7--------7--------|--8--------8--------|--8--------8--------|--10--------10--------|
--5--------5--------|--8--------8--------|--8--------8--------|--10--------10--------|
--------------------|--8--------8--------|--8--------8--------|--10--------10--------|


   H         H            H         H            H         H           H        H
----------------------|----------------------|----------------------|--------------------|
----------------------|----------------------|----------------------|--------------------|
----------------------|----------------------|----------------------|--7--------7--------|
--10--------10--------|--10--------10--------|--10--------10--------|--7--------7--------|
--10--------10--------|--10--------10--------|--10--------10--------|--5--------5--------|
--10--------10--------|--10--------10--------|--10--------10--------|--------------------|


  H        H            H         H            H         H            H         H
--------------------|----------------------|----------------------|----------------------|
--------------------|----------------------|----------------------|----------------------|
--7--------7--------|--10--------10--------|--10--------10--------|--12--------12--------|
--7--------7--------|--10--------10--------|--10--------10--------|--12--------12--------|
--5--------5--------|---8---------8--------|---8---------8--------|--10--------10--------|
--------------------|----------------------|----------------------|----------------------|


   H        H           W
---------------------|-------------------|-------------------||
---------------------|-------------------|-------------------||
--12-----------------|-------------------|-------------------||
--12--------5--------|--7----------------|-------------------||
--10--------5--------|--7----------------|-------------------||
------------5--------|--7----------------|-------------------||


============================================================================


Duration Legend
---------------
W - whole
H - half
Q - quarter
E - 8th
S - 16th
T - 32nd
X - 64th
. - note dotted
|-n-|  - n-tuplets


Tablature Legend
----------------
L - tied note
x - dead note
g - grace note
(n) - ghost note
> - accentuded note
NH - natural harmonic
AH - artificial harmonic
TH - tapped harmonic
SH - semi harmonic
PH - pitch harmonic
h - hammer on
p - pull off
b - bend
br - bendRelease
pb - preBend
pbr - preBendRelease
brb - bendReleaseBend
\n/ - tremolo bar dip
\n - tremolo bar dive
-/n - tremolo bar Release up
/n\ - tremolo bar inverted dip
/n - tremolo bar return
-\n - tremolo bar Release down
S - shift slide
s - legato slide
/ -  slide into from below or out of upwards
\ -  slide into from above or out of downwards
~ - vibrato
W - wide vibrato
tr - trill
TP - tremolo picking
T - tapping
S - slap
P - pop
< - fade in
^ - brush up
v - brush down
comments
We did not receive enough feedback on this tab! Please rate:
print report bad tab
1 2 3 4 5
1 comment total.
0 reply
-Annihilation- wrote on March 26 2011, 11:36 pm

This seems correct to me. Five stars.

I want to post or [tab]
guest
You may want to rate the tab now too:
select rating
Please do not post tabs as comments. Select "correction" instead!