Oops, an error
Loading. Please wait.

Crackerman Tab

ver2
ver2

Whole song

Interactive

More versions @911Tabs.com
25,078 views 63 this week
2 commentsread comments
1 2 3 4 5
excellent!
x 5
add to favorites launch autoscroll
font size
0
reset
Autoscroll
+/-
esc
set tempo
stop
Contributor
WARNING: You are trying to view
                                    content from Ultimate-Guitar.com
                                    in an unauthorized application,
                                    which is prohibited.

                                    Please use an official Ultimate
                                    Guitar Tabs application for iPhone,
                                    iPad or Android to access legitimate
                                    chords, guitar, bass, and drum tabs
                                    from Ultimate-Guitar.com database.

                                    Type "ultimate guitar tabs" in Apple
                                    App Store's or Android Market's
                                    search to find the application.
#----------------------------------PLEASE NOTE--------------------------------#
#This file is the author's own work and represents their interpretation of the#
#song. You may only use this file for private study, scholarship, or research.#
#-----------------------------------------------------------------------------#
#-- File created with Instab - http://www.pconline.com/~smcarey/instab.html --#
#-----------------------------------------------------------------------------#

Author/Artist: Stone Temple Pilots
Title: Crackerman


/ slide up
\ slide down
h hammer on
p pull off
b bend
r release bend


Tuning (C# A D F# A d)


   |-----------------------------------------------------------------|
   |-----------------------------------------------------------------|
   |-----------------------------------------------------------------|
   |-4-4-4-4-4-4-4-4-4-4-4-4-4-4-4-4---------------------------------|
   |-0-2-2-0-2-2-0-2-2-0-2-2-0-2-2-2---------------------------------|
   |-x-x-x-x-x-x-x-x-x-x-x-x-x-x-x-x-3-5-5-8-5-5-3-5-5-8-5-5-3-5-5-5-| 
Chorus/Intro


   |--------------------------------------------|
   |--------------------------------------------|
   |---------------------------------3-/-9------|
   |-4-4-4-4-4-4-4-4-4-4-4-4-4-4-4-4-2-/-7------|
   |-0-2-2-0-2-2-0-2-2-0-2-2-0-2-2-2------------|
   |-x-x-x-x-x-x-x-x-x-x-x-x-x-x-x-x------------|
Chorus/Intro End


   |---------------------------------|--|-------|
   |---------------------------------|--|-------|
   |---------------------------------|--|-------|
   |---------------------------------|--|-------|
   |---------------------------------|--|-------|
   |-3-5-5-8-5-5-3-5-5-8-5-5-3-5-5-5-|--|-------|
Verse                                     Chorus


   |---------x------------------------------x-----------------------x---------|
   |---------5------------------------------5-----------------------5---------|
   |-----3---3---h5p3h5p3---------------3---3-------------------3---3--h5p3h--|
   |-4---2--------------------------4---2-------------------4---2-------------|
   |-4------------------------------4-----------------------4-----------------|
   |-x------------------------------x--------------8b9r8--8-x-----------------|
Interlude


   |----------------------7--------|
   |----------------------5--------|
   |-5p3--------------3---x--------|
   |--------------4---2------------|
   |--------------4----------------|
   |--------------x----------------|



   |-14-----14--------13-13-----13--------13-13-------------------------|
   |-17b19-----17b19-----17b19-----17b19-----17b19r17b19r17--17b18-17---|
   |---------------------------------------------------------16b17------|
   |---------------------------------------------------------14b15------|
   |--------------------------------------------------------------------|
   |--------------------------------------------------------------------|
Solo Standard Live


   |------------------------------------------------------------------------------|
   |-17b19r17--17b19vvvvv-17-17---------------------17----------17b18r17-17-------|
   |----------------------16-16h18--13b15r13-13\9---16b17r16-16----------16b17r16-|
   |--------------------------------14b16r14-14\10--------------------------------|
   |--------------------------------11b13r11-11\7---------------------------------|
   |------------------------------------------------------------------------------|



   |-------------------------------------------------17-19b21r19--19b21r19--19b21-|
   |------------------------------------------------------------------------------|
   |-16-16b18r16-16b17r16-16vvvvvv-14h16-16b18r16---------------------------------|
   |-------------16b17r16-------------------------14------------------------------|
   |------------------------------------------------------------------------------|
   |------------------------------------------------------------------------------|



   |-17---------------------------------------------------11-------------11---------|
   |----19-17-14------------------------------------------14b16r14-14vvv-14b16r14---|
   |-------------17-16-14-----------------------------------------------------------|
   |----------------------16--------------------------------------------------------|
   |-------------------------16-15-13-----------------------------------------------|
   |----------------------------------14b15--14b-16-r14-----------------------------|

   |-----11-----------14----------------------------|
   |-14v-14b16r14-14v-17b19-r17---------------------|
   |------------------------------------------------|
   |------------------------------------------------|
   |-------------------------------12\--------------|
   |------------------------------------------------|


   |--------|
   |--------|
   |-9------|
   |-7------|
   |--------|
   |--------|
End
comments
print report bad tab
2 comments total.
0 reply
MagicsDevil wrote on June 8 2010, 10:22 pm

Awesome tab, man. Glad to have been the first to comment.
5*****

+2 reply
JimBonJovi wrote on September 25 2010, 11:35 am

I know you probably don't care but tought I'd mention that the last intro chord just before the verses begin should be whatn I've put in here. Other than that this is the way Dean plays it and it's superb my friend.

---|--------------------------------------|-----------------------------------|
---|-------------------------------7------|-----------------------------------|
---|-4-4-4-4-4-4-4-4-4-4-4-4-4-2---8------|-----------------------------------|
---|-4-4-4-4-4-4-4-4-4-4-4-4-4-2---7------|-----------------------------------|
---|-0-2-2-0-2-2-0-2-2-0-2-2-2-0----------|-----------------------------------|
---|--------------------------------------|-----------------------------------|

I want to post or [tab]
guest
You may want to rate the tab now too:
select rating
Please do not post tabs as comments. Select "correction" instead!