Oops, an error
Loading. Please wait.

Arrows Tab

ver1
ver1

Whole song

Interactive

More versions @911Tabs.com
835 views 3 this week
1 commentread comment
1 2 3 4 5
worth learning
x 2
add to favorites launch autoscroll
font size
0
reset
Autoscroll
+/-
esc
set tempo
stop
Difficulty
intermediate
WARNING: You are trying to view
                                    content from Ultimate-Guitar.com
                                    in an unauthorized application,
                                    which is prohibited.

                                    Please use an official Ultimate
                                    Guitar Tabs application for iPhone,
                                    iPad or Android to access legitimate
                                    chords, guitar, bass, and drum tabs
                                    from Ultimate-Guitar.com database.

                                    Type "ultimate guitar tabs" in Apple
                                    App Store's or Android Market's
                                    search to find the application.
Artist: Stonegard
Song: Arrows
Album: Arrows
Tuning: CGDGBe
Tabbed by: Herman Wildhagen, herman@wildhagen.no


Riff 1:
e|-----------------------------------         ---------------------------|
B|-----------------------------------         ---------------------------|
G|-----------------------------------   x 3   ---------------------------|
D|-----------------------------------         ---------------------------|
G|-0-0-0-0-0-0-0-0-0-0-0-0-0-0-0-5h6-         -0-0-0-0-0-0-0-0-0-0-0-0-0-|
C|-0-0-0-0-0-0-0-0-0-0-0-0-0-0-0-5h6-         -0-0-0-0-0-0-0-0-0-0-0-0-0-|
   . . . . . . . . . . . . . . .               . . . . . . . . . . . . .

Riff 2:
Guitar 1:
e|----------------------------------------------------------------------|
B|----------------------------------------------------------------------|\
G|-55555555555577778888888888888888111110101010888877770000777788884444-| \
D|-xxxxxxxxxxxxxxxxxxxxxxxxxxxxxxxxxxxxxxxxxxxxxxxxxxxxxxxxxxxxxxxxxxxx-|  |
G|-55555555555577778888888888888888111110101010888877770000777788884444-|  |
C|----------------------------------------------------------------------|  |
                                                                        |  |
(5x12, 7x4, 8x16, 1x4, 10x4, 8x4, 7x4, 0x4, 7x4, 8x4, 4x4)              |  |
                                                                        |  |
Guitar 2:                                                               |  |
e|----------------------------------------------------------------------|  |
B|----------------------------------------------------------------------|  |
G|-8888888888881010101012121212121212121212121212121212-----------------|  |t.g. x2
D|-xxxxxxxxxxxxx-x-x-x-x-x-x-x-x-x-x-x-x-x-x-x-x-x-x-x------------------|  |
G|-8888888888881010101012121212121212121212121212121212-----------------|  |
C|----------------------------------------------------------------------|  |
                                                                        |  |
Guitar 2:                                                               |  |
e|----------------------------------------------------------------------| -- |
B|----------------------------------------------------------------------| -- |
G|-1717171717171717171717171717171716161616161616161313131312121010-----| -- |
D|-x-x-x-x-x-x-x-x-x-x-x-x-x-x-x-x-x-x-x-x-x-x-x-x-x-x-x-x-x-x-x-x------| -- |
G|-1717171717171717171717171717171716161616161616161313131312121010-----| -- |
C|-------------------------------------------------------------------------- | /
                                                                        |/
(8x12, 10x4, 12x16, 17x16, 16x8, 13x4, 12x2, 10x2)                      |

Riff 3:
e|--------------------------------------------------|
B|--------------------------------------------------|
G|--------------------------------------------------|
D|--------------------------------------------------|
G|-5h6-0-3h5-0-5h6-00-3h5-00-5h6-0-3h5-0-5h6-000000-|
C|-5h6-0-3h5-0-5h6-00-3h5-00-5h6-0-3h5-0-5h6-000000-|
       .     .     ..     ..     .     .     ......

Riff 4:
e|-------------------------------------------------|
B|-------------------------------------------------|
G|-------------------------------------------------|
D|-------------------------------------------------|
G|-5h6-0-3h5-0-5h6-0-3h5-00-5h6-0-3h5-0-5h6-000000-|
C|-5h6-0-3h5-0-5h6-0-3h5-00-5h6-0-3h5-0-5h6-000000-|
       .     .     .     ..     .     .     ......

Riff 5:                  Riff 6:
e|---------------        -------------------------|
B|---------------        -------------------------|
G|---------------   x2   -------------------------|   x4
D|---------------        -------------------------|
G|---------------        -3-3-3-6-6-5-0-0-000-0-0-|
C|-3-3-3-6-6-5-0-        -3-3-3-6-6-5-0-0-000-0-0-|
                                      . . ... . .
Riff 7:                        Riff 8:
e|--------------------------   -------------------------|
B|--------------------------   -------------------------|
G|--------------------------   -------------------------|   x2
D|--------------------------   -------------------------|
G|-3-3-6-666555-0-0-000-0-0-   -3-3-3-6-6-5-0-0-000-0-0-|
C|-3-3-6-666555-0-0-000-0-0-   -3-3-3-6-6-5-0-0-000-0-0-|
         ...... . . ... . .                 . . ... . .

Riff 9:                         Riff 10:   Clean
e|---------------------------   ----------------------------------|
B|---------------------------   ----------------------------------|
G|---------------------------   -8--8-8p7p5-7-7\-----3--------4---|
D|---------------------------   -5------------5\---1------0-----0-|
G|-3-3-3-3-3-3-6-6-6-6-5-3-0-   -5---------------1------0---0-----|
C|-3-3-3-3-3-3-6-6-6-6-5-3-0-   ----------------------------------|
                     . . .

Riff 11:
e|--------------------------------------------------------------------|
B|--------------------------------------------------------------------|
G|--------------------------------------------------------------------|
D|---------------------------------12-----12----12-----10-----10------|
G|----7----7---7----8----8---8----------------------------------------|
C|-000--000--00--000--000--00--888----888----88----777----777----777\-|
   ...  ...  ..  ...  ...  ..  ...    ...    ..    ...    ...    ...

Riff 12:
e|-----------------|
B|-----------------|
G|-----------------|
D|-----------------|
G|-0-0-0-0-0-0-0-0-|
C|-0-0-0-0-0-0-0-0-|
   . . . . . . . .

Riff 2:
Guitar 1:
e|----------------------------------------------------------------------|
B|----------------------------------------------------------------------|\
G|-55555555555577778888888888888888111110101010888877770000777788884444-| \
D|-xxxxxxxxxxxxxxxxxxxxxxxxxxxxxxxxxxxxxxxxxxxxxxxxxxxxxxxxxxxxxxxxxxxx-|  |
G|-55555555555577778888888888888888111110101010888877770000777788884444-|  |
C|----------------------------------------------------------------------|  |
                                                                        |  |
(5x12, 7x4, 8x16, 1x4, 10x4, 8x4, 7x4, 0x4, 7x4, 8x4, 4x4)              |  |
                                                                        |  |
Guitar 2:                                                               |  |
e|----------------------------------------------------------------------|  |
B|----------------------------------------------------------------------|  |
G|-8888888888881010101012121212121212121212121212121212-----------------|  |t.g. x2
D|-xxxxxxxxxxxxx-x-x-x-x-x-x-x-x-x-x-x-x-x-x-x-x-x-x-x------------------|  |
G|-8888888888881010101012121212121212121212121212121212-----------------|  |
C|----------------------------------------------------------------------|  |
                                                                        |  |
Guitar 2:                                                               |  |
e|----------------------------------------------------------------------| -- |
B|----------------------------------------------------------------------| -- |
G|-1717171717171717171717171717171716161616161616161313131312121010-----| -- |
D|-x-x-x-x-x-x-x-x-x-x-x-x-x-x-x-x-x-x-x-x-x-x-x-x-x-x-x-x-x-x-x-x------| -- |
G|-1717171717171717171717171717171716161616161616161313131312121010-----| -- |
C|-------------------------------------------------------------------------- | /
                                                                        |/
(8x12, 10x4, 12x16, 17x16, 16x8, 13x4, 12x2, 10x2)                      |

Riff 13:
e|----------------------------------------------------------------------------|
B|----------------------------------------------------------------------------|
G|----------------------------------------------------------------------------|
D|----------------------------------------------------------------------------|
G|-5h6-0-0-0-0-0-3h5-00-5h6-0-0-0-0-0-3h5-00006-6-6-6-6-6-6b7-0-0-0-0-0-0-0-0-|
C|-5h6-0-0-0-0-0-3h5-00-5h6-0-0-0-0-0-3h5-00006-6-6-6-6-6-6b7-0-0-0-0-0-0-0-0-|
       . . . . .     ..     . . . . .     ....              . . . . . . . .

Riff 14:                      Riff 6:
e|-------------------------   -------------------------|
B|-------------------------   -------------------------|
G|-------------------------   -------------------------|   x4
D|-------------------------   -------------------------|
G|-------------5-3---------   -3-3-3-6-6-5-0-0-000-0-0-|
C|-3-3-3-6-6-5-----6-0-0-0-   -3-3-3-6-6-5-0-0-000-0-0-|
                     . . .                 . . ... . .

Riff 15:
e|------------------        -------------------------------|
B|------------------        -------------------------------|
G|------------------        -88888888888888887777777777777-|
D|-------3----------   x2   -66666666666666666666666666666-|
G|-0-2-2-2--0-2-2-3-        -------------------------------|
C|-0-2-2-2--0-2-2-3-        -------------------------------|
       .        .

Riff 11:
e|----------------------------------------------------------------------|
B|----------------------------------------------------------------------|
G|----------------------------------------------------------------------|
D|---------------------------------12-----12----12-----10-----10-----10-|
G|----7----7---7----8----8---8------------------------------------------|
C|-000--000--00--000--000--00--888----888----88----777----777----777----|
   ...  ...  ..  ...  ...  ..  ...    ...    ..    ...    ...    ...

Riff 11:
e|-------------------------------------------------------------------|
B|-------------------------------------------------------------------|
G|-------------------------------------------------------------------|
D|---------------------------------12-----12----12-----10-----10-----|
G|----7----7---7----8----8---8---------------------------------------|
C|-000--000--00--000--000--00--888----888----88----777----777----777-|
   ...  ...  ..  ...  ...  ..  ...    ...    ..    ...    ...    ...

Riff 16:
e|----------------------------------------------------------|
B|----------------------------------------------------------|
G|----------------------------------------------------------|   x2
D|----------------------------------------------------------|
G|---7-----7---7---8---88---8-8---7-----7---7---5---5-7-8-4-|
C|-0---0-0---0---0---0----0-----8---8-8---8---7---7---------|

Riff 17:
e|-------------------------------------------------------------------|
B|-------------------------------------------------------------------|
G|-------------------------------------------------------------------|
D|-------------------------------------------------------------------|
G|-0--0--0-0--0--0-0--0--0-0--0-5h6-0--0--0-0--0--0-0--0--0-0-000000-|
C|-0--0--0-0--0--0-0--0--0-0--0-5h6-0--0--0-0--0--0-0--0--0-0-000000-|
   .  .  . .  .  . .  .  . .  .     .  .  . .  .  . .  .  . . ......

Riff 18:
Guitar 1:
e|-------------------------------------------------------------------------- |
B|----------------------------------------------------------------------|\-- |
G|-------------------------------------------------------------------------- | \
D|---------------------------------666666666666666655555555-------------| -- |
G|-55555555555577778888888888888888------------------------101010108877-| -- |
C|----------------------------------------------------------------------| -- |
                                                                        |  |
(5x12, 7x4, 8x16, 6x16, 5x8, 10x4, 8x2, 7x2)                            |  |
                                                                        |  |
Guitar 2:                                                               |  |
e|----------------------------------------------------------------------|  |
B|----------------------------------------------------------------------|  |
G|----------------------------------------------------------------------|  |t.g. x6
D|----------------------------------------------------------------------|  |
G|-8888888888881010101012121212121212121212121212121212-----------------|  |
C|----------------------------------------------------------------------|  |
                                                                        |  |
Guitar 2:                                                               |  |
e|----------------------------------------------------------------------| -- |
B|----------------------------------------------------------------------| -- |
G|----------------------------------------------------------------------| -- |
D|-1010101010101010101010101010101099999999-----------------------------| -- |
G|-----------------------------------------1313131312121010-------------| -- |
C|-------------------------------------------------------------------------- | /
                                                                        |/
(8x12, 10x4, 12x16, 10x16, 9x8, 13x4, 12x2, 10x2)                       |

Riff 19:
Guitar 1:
e|----------------------------------------------------------- |
B|-------------------------------------------------------|\-- |
G|----------------------------------------------------------- | \
D|-------------------------------------------------------| -- |
G|-5--7-8--1--0-------5--7-8--1--0--------5--------------| -- |
C|--------------5-3-2---------------5-3-2----------------| -- |
                                                         |  |
Guitar 2:                                                |  | t.g.
e|-------------------------------------------------------| -- |
B|-------------------------------------------------------| -- |
G|-------------------------------------------------------| -- |
D|------------10--9---------------------10--9---------------- | /
G|-8--10-12~--------13-12-10-8--10-12~--------13-12-10-8----- |
C|----------------------------------------------------------- |

End.


| /      slide up
| \      slide down
| t.g.   to gether
| .      palm mute
| b      bend
| ~      vibrato
| h      hammer on
| p      pull off
| x      muted note
comments
We did not receive enough feedback on this tab! Please rate:
print report bad tab
1 2 3 4 5
1 comment total.
0 reply
Goef_rowley@hot wrote on November 12 2006, 09:42 am

This was bad .. it was a little like the song but not right that all

I want to post or [tab]
guest
You may want to rate the tab now too:
select rating
Please do not post tabs as comments. Select "correction" instead!