Oops, an error
Loading. Please wait.

Anthem Of Our Dying Day Tab

ver5
ver5

Whole song

Interactive

More versions @911Tabs.com
36,856 views 10 this week
5 commentsread comments
1 2 3 4 5
excellent!
x 6
Autoscroll
+/-
esc
set tempo
stop
Contributor
Tuning
Tabbers playing skills
D A D G B E
advanced +
Hey! There's an official Ultimate Guitar app which is ideal
for learning songs when you're away from computer. Get the app
WARNING: You are trying to view
                                    content from Ultimate-Guitar.com
                                    in an unauthorized application,
                                    which is prohibited.

                                    Please use an official Ultimate
                                    Guitar Tabs application for iPhone,
                                    iPad or Android to access legitimate
                                    chords, guitar, bass, and drum tabs
                                    from Ultimate-Guitar.com database.

                                    Type "ultimate guitar tabs" in Apple
                                    App Store's or Android Market's
                                    search to find the application.
BY f_sario@yahoo.com 
Lucena,Phils...
f_sario@yahoo.com
Cp #-09283150081
SHC(BSN) Lucena


GtrI-(e b g d A D)
GtrII-(e b g d A D)


((#))=sounds like church organ???
(#)-delay
*-palm mute
h-hammer
p-pull off
~-vib


Intro:
GtrI
|-----------------------------|-------------------------|-----------------|
|-----------------------------|-------------------------|-----------------|
|-----------------------------|-------------------------|-----------------|
|-7-7777-7-7777-7-7777-7-7777-|-11-11111111-11-11111111-|-9-9999-9-9999---|
|-4-4444-4-4444-4-4444-4-4444-|-9--9-9-9-9--9--9-9-9-9--|-7-7777-7-7777---|
|-----------------------------|-------------------------|-----------------|
2.
GtrI
|-----------------------------|-------------------------|-----------------|
|-----------------------------|-------------------------|-----------------|
|-----------------------------|-------------------------|-----------------|
|-7-7777-7-7777-7-7777-7-7777-|-11-11111111-11-11111111-|-9-9999-9-9999---|
|-4-4444-4-4444-4-4444-4-4444-|-9--9-9-9-9--9--9-9-9-9--|-7-7777-7-7777---|
|-----------------------------|-------------------------|-----------------|
GtrII
|-----------------------------|-------------------------|-----------------|
|-----------------------------|-------------------------|-----------------|
|-----------------------------|-------------------------|-----------------|
|-(((7)))-~~-~~-~~-~~-~~-~~---|-------------------------|-----------------|
|-----------------------------|-(((9)))-~~-~~-~~-~~-~~--|-(((7)))-~~-~~---|
|-----------------------------|-------------------------|-----------------|

Verse:
1.
GtrI
|-----------------------------|-------------------------|-----------------|
|-----------------------------|-------------------------|-----------------|
|-----------------------------|-------------------------|-----------------|
|-7-7777-7-7777-7-7777-7-7777-|-11-11111111-11-11111111-|-9-9999-9-9999---|
|-4-4444-4-4444-4-4444-4-4444-|-9--9-9-9-9--9--9-9-9-9--|-7-7777-7-7777---|
|-----------------------------|-------------------------|-----------------|
GtrII
|-----------------------------|-------------------------|-----------------|
|-----------------------------|-------------------------|-----------------|
|-----------------------------|-------------------------|-----------------|
|-(((7)))-~~-~~-~~-~~-~~-~~---|-------------------------|-----------------|
|-----------------------------|-(((9)))-~~-~~-~~-~~-~~--|-(((7)))-~~-~~---|
|-----------------------------|-------------------------|-----------------|
2.
GtrI
|-----------------------------|-------------------------|-----------------|
|-----------------------------|-------------------------|-----------------|
|-----------------------------|-------------------------|-----------------|
|-7-7777-7-7777-7-7777-7-7777-|-11-11111111-11-11111111-|-9-9999-9-9999---|
|-4-4444-4-4444-4-4444-4-4444-|-9--9-9-9-9--9--9-9-9-9--|-7-7777-7-7777---|
|-----------------------------|-------------------------|-----------------|
GtrII
|-----------------------------|-------------------------|-----------------|
|-----------------------------|-------------------------|-----------------|
|-----------------------------|-------------------------|-----------------|
|-(((7)))-~~-~~(((9)))~~-~~---|-------------------------|-----------------|
|-----------------------------|-(((9)))-~~-~~-~~-~~-~~--|-(((7)))-~~-~~---|
|-----------------------------|-------------------------|-----------------|

3.
GtrI
|-----------------------------|-------------------------|-----------------|
|-----------------------------|-------------------------|-----------------|
|-----------------------------|-------------------------|-----------------|
|-7-7777-7-7777-7-7777-7-7777-|-11-11111111-11-11111111-|-9-9999-9-9999---|
|-4-4444-4-4444-4-4444-4-4444-|-9--9-9-9-9--9--9-9-9-9--|-7-7777-7-7777---|
|-----------------------------|-------------------------|-----------------|
GtrII
|-----------------------------|-------------------------|-----------------|
|-----------------------------|-------------------------|-----------------|
|-----------------------------|-------------------------|-----------------|
|-(((7)))-~~-~~-~~-~~-~~-~~---|-------------------------|-----------------|
|-----------------------------|-(((9)))-~~-~~-~~-~~-~~--|-(((7)))-~~-~~---|
|-----------------------------|-------------------------|-----------------|
4.
GtrI
|-----------------------------|
|-----------------------------|
|-----------------------------|
|-7-7777-7-7777-7-7777-7-7777-|
|-4-4444-4-4444-4-4444-4-4444-|
|-----------------------------|
GtrII
|-----------------------------|
|-----------------------------|
|-----------------------------|
|-(((7)))-~~-~~(((9)))~~-~~---|
|-----------------------------|
|-----------------------------|
Pre-Chorus:
GtrI
|--------------------------------------|
|--------------------------------------|
|--------------------------------------|
|-0-0000--0-0000--0-0000--0-0000-------|
|-0-0000--0-0000--0-0000--0-0000-------|
|-0-0000--0-0000--0-0000--0-0000-------|
    ****    ****    ****    ****
GtrII
|--------------------------------------|
|--------------------------------------|
|--------------------------------------|
|-7-0000--7-0000--7-0000--7-0000-------|
|-5-0000--5-0000--5-0000--5-0000-------|
|---0000----0000----0000----0000-------|
    ****    ****    ****    ****
ChorusI-
Gtrs I& II
|----------------------------------------------------|
|----------------------------------------------------|
|----------------------------------------------------|
|-7777777777-222222222222-444444444444-777777-777777-|
|-7777777777-222222222222-444444444444-444444-555555-|
|-7777777777-222222222222-444444444444-000000-000000-|
breakdown-
 
 GtrI
|-----------------------------------------------------|
|---------10-----------10------------10---------------|
|----11p9---h9----11p9---h9-----11p9---h9-------------|
|-44-----------44------------44-----------------------|
|-44-----------44------------44-----------------------|
|-44-----------44------------44-----------------------|
  **           **            **
or
|-----------------------------------------------------|
|---------10-----------10------------10---------------|
|----11p9---h9----11p9---h9-----11p9---h9-------------|
|-----------------------------------------------------|
|-99-----------99------------99-----------------------|
|-----------------------------------------------------|
  **           **            **
GtrII
|-----------------------------------------------------|
|-----------------------------------------------------|
|-----------------------------------------------------|
|-44-----------44------------44-----------------------|
|-44-----------44------------44-----------------------|
|-44-----------44------------44-----------------------|
Verse:
GtrI
|----------------------------------------------------|
|----------------------------------------------------|
|----------------------------------------------------|
|-4~-(4)-(4)-(4)-(4)-(4)-(4)-(4-(4)-(4)--------------|
|----------------------------------------------------|
|----------------------------------------------------|

2.
GtrI
|----------------------------------------------------|
|----------------------------------------------------|
|----------------------------------------------------|
|-0~-----------9^(11)~-9~----9^/---------------------|
|-0~-------------------------------------------------|
|-0~-------------------------------------------------|
GtrII
|---------------------------------------------------|
|---------------------------------------------------|
|---------------------------------------------------|
|-0~---0-0-0-0-0-0-0--------------------------------|
|-0~---0-0-0-0-0-0-0--------------------------------|
|-0~---0-0-0-0-0-0-0--------------------------------|
3.
GtrI
|---------------------------------------------------------|
|---------10-----------10------------10-------------10----|
|----11p9---h9----11p9---hp9-----11p9---h9-----11p9---h9--|
|-44-----------44------------44-------------44------------|
|-44-----------44------------44-------------44------------|
|-44-----------44------------44-------------44------------|
  **           **            **             **
GtrII
|----------------------------------------------------|
|--------------------9h10p9--------------------------|
|---------------------------h11p9--------------------|
|----------------------------------------------------|2x
|----------------------------------------------------|
|----------------------------------------------------|

then-
GtrII
|----------------------------------------------------|
|----------------------------------------------------|
|----------------------------------------------------|
|-0~-0~-0~-0~-0~-0~-0~-0~-0~-------------------------|
|-0~-0~-0~-0~-0~-0~-0~-0~-0~-------------------------|
|-0~-0~-0~-0~-0~-0~-0~-0~-0~-------------------------|
GtrII
|----------------------------------------------------|
|----------------------------------------------------|
|-121212121212--141414141414--161616161616-----------|
|-x-x-x-x-x-x---x-x-x-x-x-x---x-x-x-x-x-x------------|
|-111111111111--121212121212--141414141414-----------|
|----------------------------------------------------|

4.
GtrI
|---------------------------------------------------------|
|---------10-----------10------------10-------------10----|
|----11p9---h9----11p9---hp9-----11p9---h9-----11p9---h9--|
|-44-----------44------------44-------------44------------|
|-44-----------44------------44-------------44------------|
|-44-----------44------------44-------------44------------|
  **           **            **             **
GtrII
|---------------------------------------------------------|
|---------------------------------------------------------|
|---------------------------------------------------------|
|-44-----------44------------44-------------44------------|
|-44-----------44------------44-------------44------------|
|-44-----------44------------44-------------44------------|
  **           **            **             **

then-
GtrI
|----------------------------------------------------|
|----------------------------------------------------|
|----------------------------------------------------|
|-0~-0~-0~-h11h12h14p12-/-14141414-------------------|
|-0~-0~-0~-------------------------------------------|
|-0~-0~-0~-------------------------------------------|
GtrII
|----------------------------------------------------|
|---------------------------------12-12-12-----------|
|----------------------------------------------------|
|-0~-0~-0~-0~-0~-0~-0~-0~-0~-------------------------|
|-0~-0~-0~-0~-0~-0~-0~-0~-0~-------------------------|
|-0~-0~-0~-0~-0~-0~-0~-0~-0~-------------------------|
 
GtrI
|---------------------------------------------------------|
|---------10-----------10------------10-------------10----|
|----11p9---h9----11p9---hp9-----11p9---h9-----11p9---h9--|
|-44-----------44------------44-------------44------------|
|-44-----------44------------44-------------44------------|
|-44-----------44------------44-------------44------------|
  **           **            **             **
GtrII
|---------------------------------------------------------|
|---------------------------------------------------------|
|---------------------------------------------------------|
|-44-----------44------------44-------------44------------|
|-44-----------44------------44-------------44------------|
|-44-----------44------------44-------------44------------|
  **           **            **             **
Pre-Chorus2:
GtrI
|--------------------------------------|
|--------------------------------------|
|-99------99------99------99-----------|
|-0-0000--0-0000--0-0000--0-0000-------|
|-0-0000--0-0000--0-0000--0-0000-------|
|-0-0000--0-0000--0-0000--0-0000-------|
    ****    ****    ****    ****
GtrII
|--------------------------------------|
|--------------------------------------|
|--------------------------------------|
|-7-0000--7-0000--7-0000--7-0000-------|
|-5-0000--5-0000--5-0000--5-0000-------|
|---0000----0000----0000----0000-------|
    ****    ****    ****    ****

Chorus-
GtrI
|----------------------------------------------------|
|----------------------------------------------------|
|----------------------------------------------------|
|-7777777777-222222222222-444444444444-777777-777777-|
|-7777777777-222222222222-444444444444-444444-555555-|
|-7777777777-222222222222-444444444444-000000-000000-|
 GtrII
                             |~~~~~~~~6x~~~~~~~~~~~-||-----7x---------|
          
|-------------------------|  |----------------------|------------------|
|-------------------------|  |----------------------|------------------|
|-9999999999-999999999999-|  |-13-13/14\13/14\13----|-1414141414141414-|
|-7777777777-xxxxxxxxxxxx-|  |-x--x--x--x--x--x-----|-x-x-x-x-x-x-x-x--|
|-7777777777-777777777777-|  |-11-11/12\11/12\11----|-1212121212121212-|
|-7777777777--------------|  |----------------------|------------------|
Bridge-
Gtrs
|-----------------------------------------------------|
|-----------------------------------------------------|
|-----------------------------------------------------|
|-4444444--444444-0-7-7-4444444--444444-0-7-7-0-00-0--|
|-4444444--444444-0-5-5-4444444--444444-0-5-5-0-00-0--|
|-4444444--444444-0-----4444444--444444-0-----0-00-0--|
                  *                     *     * ** *
|----------------------------------------------------|
|----------------------------------------------------|
|----------------------------------------------------|
|-4444444--444444-0-7-7-4444444--0000------4444444---|
|-4444444--444444-0-5-5-4444444--0000------4444444---|
|-4444444--444444-0-----4444444--0000------4444444---|
                  *              ****      
|----------------------------------------------------|
|----------------------------------------------------|
|----------------------------------------------------|
|-0-77--0-77--0-77--0-77-----------------------------|
|-0-55--0-55--0-55--0-55-----------------------------|
|-0-----0-----0-----0--------------------------------|
  *     *     *     *                         
verse-
effects@ bass(f# )
do Pre-Chorus2
Chorus-
1.
GtrII(clean)
|-----------------------------|-----------------------------|
|-----------------------------|-----------------------------|
|-----------------------------|-----------------------------|
|-7-7777-7-7777-7-7777-7-7777-|-9-9999-9-9999--9-9999-9-9999|
|-4-4444-4-4444-4-4444-4-4444-|-7-7777-7-7777--7-7777-7-7777|
|-----------------------------|-----------------------------|

|----------------------------------------------------|
|----------------------------------------------------|
|----------------------------------------------------|
|-11-11111111-11-1111111111-11111111-11-11111111-----|
|-9--9-9-9-9--9--9-9-9-9-9--9-9-9-9--9--9-9-9-9------|
|----------------------------------------------------|
then-
GtrI
|----------------------------------------------------|
|----------------------------------------------------|
|----------------------------------------------------|
|-7-7777-7-7777-7-7777-7-7777------------------------|
|-4-4444-4-4444-5-5555-5-5555------------------------|
|-0-0000-0-0000-0-0000-0-0000------------------------|
GtrII
|----------------------------------------------------|
|----------------------------------------------------|
|----------------------------------------------------|
|-/////////////////////////////////////////////------|
|-//////////(pickslide)////////////////////////------|
|-/////////////////////////////////////////////------|
 
Chorus-
GtrI
|----------------------------------------------------|
|----------------------------------------------------|
|----------------------------------------------------|
|-7777777777-222222222222-444444444444-777777-777777-|
|-7777777777-222222222222-444444444444-444444-555555-|
|-7777777777-222222222222-444444444444-000000-000000-|
 GtrII
                                    |~~~~~~~~6x~~~~~~~~-||-----cont--------|
          
|---------------------------------| |-------------------|------------------|
|---------------------------------| |-------------------|------------------|
|-14141414141414-1616161616161616-| |-13-13/14\13/14\13-|-1414141414141414-|
|-x-x-x-x-x-x-x--x-x-x-x-x-x-x-x--| |-x--x--x--x--x--x--|-x-x-x-x-x-x-x-x--|
|-12121212121212-1414141414141414-| |-11-11/12\11/12\11-|-1212121212121212-|
|---------------------------------| |-------------------|------------------|
outro-
 GtrI
|-----------------------------------------------------|
|---------10-----------10------------10---------------|
|----11p9---h9----11p9---h9-----11p9---h9-------------|
|-44-----------44------------44---------------0000----|
|-44-----------44------------44---------------0000----|
|-44-----------44------------44---------------0000----|
  **           **            **               ****

|-----------------------------------------------------|
|---------10-----------10------------10---------------|
|----11p9---h9----11p9---h9-----11p9---h9-------------|
|-44-----------44------------44-----------------------|
|-44-----------44------------44-----------------------|
|-44-----------44------------44-----------------------|
  **           **            **              
|----------------------------------------------------|
|----------------------------------------------------|
|----------------------------------------------------|
|-0-77--0-77--0-77--0-000000-------------------------|
|-0-55--0-55--0-55--0-000000-------------------------|
|-0-----0-----0-----0-000000-------------------------|
  *     *     *     *
then
GtrII(clean)
|-----------------------------|-----------------------------|
|-----------------------------|-----------------------------|
|-----------------------------|-----------------------------|
|-7-7777-7-7777-7-7777-7-7777-|-9-9999-9-9999--9-9999-9-9999|
|-4-4444-4-4444-4-4444-4-4444-|-7-7777-7-7777--7-7777-7-7777|
|-----------------------------|-----------------------------|

|----------------------------------------------------|
|----------------------------------------------------|
|----------------------------------------------------|
|-11-11111111-11-1111111111-11111111-11-11111111-----|
|-9--9-9-9-9--9--9-9-9-9-9--9-9-9-9--9--9-9-9-9------|
|----------------------------------------------------|

|----------------|------------------|
|----------------|------------------|
|----------------|------------------|
|-7-7777-7-7777--|-7-7777-7-7777-7~-|
|-4-4444-4-4444--|-5-5555-5-5555-7~-|
|----------------|---------------7~-|
comments
print report bad tab
5 comments total. Showing first comments.
0 reply
guitarkoto wrote on December 9 2007, 05:40 am

perfect!!! ~~~tnx dude~~

0 reply
loserific94 wrote on May 8 2010, 12:23 pm

okay, this is too confusing to read xD

0 reply
ultimakevin9 wrote on December 12 2010, 02:49 pm

yeah a little bit :@

I want to post or [tab]
guest
You may want to rate the tab now too:
select rating
Please do not post tabs as comments. Select "correction" instead!